Song name
# A B C D E F G H I J K L M N O P Q R S T U V W X Y Z

Frightened Rabbit - Not Miserable chords

Highlighted       Show chord diagrams
Artist: Frightened Rabbit
Song: Not Miserable
Album: The Winter of Mixed Drinks
Tabbed by: Don Tago
Email: recebedou@yahoo.com


Standard Tuning


Chords used:
   EADGBe
C: 032010
F: 1332--
G: 320033


Intro/Verse riff:
   C
e|-3-0-1--3-0-1--3-0-1--3-0-1----|
B|-1-1-1--1-1-1--1-1-1--1-1-1----|
G|-0-0-0--0-0-0--0-0-0--0-0-0----|
D|-------------------------------| [repeat over and over]
A|-------------------------------|
E|-------------------------------|



Intro: [play Intro/Verse riff 4x]


Verse 1: [play into/verse riff along though-out]
C
Well this is easier now, I found all the pieces I lost in the flood
C                   G  F
It wasn't that much
C
And though it's easier now, I will always remember the night that I almost drowned
C                       G  F 
All alone in your house


Interlude 1 riff: 
   C
e|--------------------------------------------------|
B|---1/5---1/5---1/5---6/5----1/5---1/5---1/5---6/5-|
G|--------------------------------------------------| then, 
D|--------------------------------------------------| 
A|-3-----3-----3-----3------3-----3-----3-----3-----|
E|--------------------------------------------------|



Verse 2: [play into/verse riff along though-out]
C
And the love that I lost, all of the shit that came out in the wash
C                     G  F
Just a pocket of fluff
C
I'm a poupon, I am free of from disease no greys no liver-spots
C                          G       F      
Most of the misery's gone... gone, gone to the bone


Interlude 2 riff:
   C
e|---------------------------------------------|
B|---1/5---1/5---1/5---1/5----1/5---1/5---1/5--|
G|---------------------------------------------| then, 
D|---------------------------------------------| 
A|-3-----3-----3-----3------3-----3-----3------|
E|---------------------------------------------|


Chorus: [play Interlude 2 riff through-out]
C                             G             F
I'm not miserable now, no one knows, no one knows
                 C
I'm not miserable

Interlude 3 riff:
   C           G     F
e|--------------------------|
B|--------------------------|
G|---2/5---2/5---2/5---2/5--| 
D|--------------------------| [repeat 4x], then
A|-3-----3-----3-----3------|
E|--------------------------|


Verse 3: [use verse 2 chord + riff structure]
So the heads that I sung prepares for the flak from a bear for a ton
Say it's history now
Though the corners are lent, the dark can return with the flick of a switch
It hasn't turned on me yet, yet


Interlude 2 riff: then,


Chorus: [play Interlude 2 riff through-out]
C                             G             F
I'm not miserable now, no one knows, no one knows
                 C
I'm not miserable


Interlude 3 riff:
   C           G     F
e|--------------------------|
B|--------------------------|
G|---2/5---2/5---2/5---2/5--| 
D|--------------------------| [repeat to fade out]
A|-3-----3-----3-----3------|
E|--------------------------|
Tap to rate this tab
# A B C D E F G H I J K L M N O P Q R S T U V W X Y Z