Song name
# A B C D E F G H I J K L M N O P Q R S T U V W X Y Z

Frightened Rabbit - Nothing Like You Acoustic tab

This is a slightly modified version from the one Scott played for his Biz Sessions 
(http://www.thesun.co.uk/sol/homepage/video/article307898.ece?channel=Biz
+Sessions&clipID=1347_SUN43549)


Intro: (work out strumming technique from the video first)

riff 1:
e|-----------|
B|-----------|
G|-7-7-7-7-7-|
D|-0-0-4-5-7-| [repeat 8 times]
A|-0-0-0-0-0-|
D|-0-0-0-0-0-|

then riff 2:

e|---------|
B|-7-7-3-3-|
G|-7-7-2-4-|
D|-7-7-0-0-| [repeat 4 times]
A|-0-9-4-5-|
D|-0-9-4-5-|


Verse:

repeat riff 2 four times


Interlude bit:

repeat riff 2 three times then...

e|---------|
B|-7-7-5-3-|
G|-7-7-6-4-|
D|-7-7-0-0-|
A|-0-9-7-5-|
D|-0-9-7-5-|


Chorus:

e|-------------------|
B|---3-3---3-5---3-5-|
G|-7-4-2-7-4-6-7-4-6-|
D|-0-0-0-0-0-0-0-0-0-|
A|-0-5-4-0-5-7-0-5-7-|
D|-0-5-4-0-5-7-0-5-7-|


Interlude 2:

repeat riff 1 three times then...

e|-----------------|
B|---------8-7-8-7-|
G|-7-7-7-7-7-7-7-7-|
D|-0-0-4-5-0-0-0-0-|
A|-0-0-0-0-0-0-0-0-|
D|-0-0-0-0-0-0-0-0-|


Extended chorus:

when backing vocals are singing 'nothing like someone new, this girl she was nothing 
you'

e|-------------|
B|---3-5---3-5-|
G|-7-4-6-7-4-6-|
D|-0-0-0-0-0-0-|
A|-0-5-7-0-5-7-|
D|-0-5-7-0-5-7-|


Outro:

repeat riff 1 eight times


Song Structure:

Intro
Verse
Interlude bit
Verse
Chorus
Interlude 2
Verse x 2
Chorus x 2
Extended chorus
Outro
Tap to rate this tab
# A B C D E F G H I J K L M N O P Q R S T U V W X Y Z