Song name
# A B C D E F G H I J K L M N O P Q R S T U V W X Y Z

Frightened Rabbit - Floating On The Forth tab

Standard Tuning

I was pissed when i found no good tabs of this song so heres the start. I'm sure its 100%!
Listen to Frabbit guys!


e|--7----------------------------------|
B|-----7---4---5---7---4---5---7-------|
G|-------------------------------------|
D|-------------------------------------|
A|-------------------------------------|
E|-------------------------------------|

e|--7-----------------------------7----|
B|-----7---4---5---7---4---5---7-------|
G|-------------------------------------|
D|-------------------------------------|
A|-------------------------------------|
E|-------------------------------------|

e|--7------------------11---7----------|
B|-----7---4---5---7------------7------|
G|-------------------------------------|
D|-------------------------------------|
A|-------------------------------------|
E|-------------------------------------|

e|---------------------------------7---|
B|-7---4---5---0---7---4---5---0-------|
G|-------------------------------------|
D|-------------------------------------|
A|-------------------------------------|
E|-------------------------------------|
Tap to rate this tab
# A B C D E F G H I J K L M N O P Q R S T U V W X Y Z