Song name
# A B C D E F G H I J K L M N O P Q R S T U V W X Y Z

Frightened Rabbit - The Woodpile tab

-------------------------------------------------------------------------------
                             The Woodpile - Frightened Rabbit
-------------------------------------------------------------------------------
Tabbed by: chrispap8
E-mail:

Tuning: drop d

This is only the intro and verse parts. The song is relatively new so I haven't had a 
chance to figure out
the pre-chorus, chorus, and bridge yet.

Remember to tune your low E string down to D.

In one youtube video, Scott plays the song a
half step down plus dropping the lowest string
down a full step; you could do that if you want
but just putting it in regular drop D is probably easier.

e|---------------------------------------------------------------------------|
B|-----------------------------------------------------------------5---------|
G|----------------------------------0-----------------------0----------------|
D|-----4-----2--0-----0------0--------------------12--0----------------------|
A|-----------------------------------------12--------------------------------|
D|--0----0---------5-----4------0------0-------0---------5-----5-------------|
Tap to rate this tab
# A B C D E F G H I J K L M N O P Q R S T U V W X Y Z