Song name
# A B C D E F G H I J K L M N O P Q R S T U V W X Y Z

Frightened Rabbit - Head Rolls Off tab

Standard tuning

This is based from this http://www.youtube.com/watch?v=sAYdKaC2dH8 video, it's 
fairly loose so if you listen to the video it should make it clearer.

-----------------------------------------------------------------------

Jesus is just a Spanish boy's name. How come one man got so much fame?

E |----------------------------------------------|
B |----------------------------------------------|
G |----------------------------------------------| 
D |-------------------------7---7---7---5--------| 
A |--7----7----7-----7------5---7---9---7--------|
E |--5----7----4-----5---------------------------|

To enemy, it's pointless to anybody, that doesn't have faith, Give me the cloth 
and I'll wipe my face.


E |----------------------------------------------|
B |----------------------------------------------|
G |----------------------------------------------| 
D |-------------------------7---7---7---5--------| 
A |--7----7----7-----7------5---7---9---7--------|
E |--5----7----4-----5---------------------------|


When it's all gone, Something carries on

E |---0-------------5-----5-------------------------|
B |---0-------------5-----5-------------------------|
G |---6-------------6-----7-------------------------| 
D |---7-------------7-----7-------------------------| 
A |---7-------------7-----5-------------------------|
E |---0-------------5-----5-------------------------|

And it's not morbid at all, Just when natures had enough of you

E |---0-------------5-----5-------------------------|
B |---0-------------5-----5-------------------------|
G |---6-------------6-----7-------------------------| 
D |---7-------------7-----7-------------------------| 
A |---7-------------7-----5-------------------------|
E |---0-------------5-----5-------------------------|

When my blood stops, Someone else's will not.

E |-5--0----------------5--5------------------------|
B |-5--0----------------5--5------------------------|
G |-6--6----------------6--7------------------------| 
D |-7--7----------------7--7------------------------| 
A |-7--7----------------7--5------------------------|
E |-5--0----------------5--5------------------------|


When my head rolls off, Someone else's will turn.

E |-5--0----------------5--5------------------------|
B |-5--0----------------5--5------------------------|
G |-6--6----------------6--7------------------------| 
D |-7--7----------------7--7------------------------| 
A |-7--7----------------7--5------------------------|
E |-5--0----------------5--5------------------------|

And while I'm alive, I'll make tiny changes to earth.

E |-0----5------0-----------------------------------|
B |-0----5------0-----------------------------------|
G |-6----6------6-----------------------------------|
D |-7----7------7-----------------------------------| 
A |-7----7------7-----------------------------------|
E |-0----5------0-----------------------------------|

E |-------------------------------------------------|
B |--7-h 5----------7-h-5---------------------------|
G |--------7--6-----------7--6----------------------| 
D |-------------------------------------------------| 
A |-------------------------------------------------|
E |-------------------------------------------------|

E |-0----5------0-----------------------------------|
B |-0----5------0-----------------------------------|
G |-6----6------6-----------------------------------|
D |-7----7------7-----------------------------------| 
A |-7----7------7-----------------------------------|
E |-0----5------0-----------------------------------|

E |-------------------------------------------------|
B |--7-h 5----------7-h-5---------------------------|
G |--------7--6-----------7--6----------------------| 
D |-------------------------------------------------| 
A |-------------------------------------------------|
E |-------------------------------------------------|

So you can burn me
Cause we'll all be the same, the same way.


E |----------------------------------------------|
B |----------------------------------------------|
G |----------------------------------------------| 
D |-------------------------7---7---7---5--------| 
A |--7----7----7-----7------5---7---9---7--------|
E |--5----7----4-----5---------------------------|


Dirt in someone's eyes cried down the drain
I believe in a house in the clouds
And God's got his dead friends 'round


E |----------------------------------------------|
B |----------------------------------------------|
G |----------------------------------------------| 
D |-------------------------7---7---7---5--------| 
A |--7----7----7-----7------5---7---9---7--------|
E |--5----7----4-----5---------------------------|

He's painted all the walls red
To remind them they're all dead

E |----------------------------------------------|
B |----------------------------------------------|
G |----------------------------------------------| 
D |-------------------------7---7---7---5--------| 
A |--7----7----7-----7------5---7---9---7--------|
E |--5----7----4-----5---------------------------|

And you know when it's all gone, something carries on--

E |---0-------------5-----5-------------------------|
B |---0-------------5-----5-------------------------|
G |---6-------------6-----7-------------------------| 
D |---7-------------7-----7-------------------------| 
A |---7-------------7-----5-------------------------|
E |---0-------------5-----5-------------------------|
And it's not morbid at all--


E |---0-------------5-----5-------------------------|
B |---0-------------5-----5-------------------------|
G |---6-------------6-----7-------------------------| 
D |---7-------------7-----7-------------------------| 
A |---7-------------7-----5-------------------------|
E |---0-------------5-----5-------------------------|

Just when nature's had enough of you.

E |---0-------------5-----5-------------------------|
B |---0-------------5-----5-------------------------|
G |---6-------------6-----7-------------------------| 
D |---7-------------7-----7-------------------------| 
A |---7-------------7-----5-------------------------|
E |---0-------------5-----5-------------------------|

When my blood stops, Someone else's will not.

E |-5--0----------------5--5------------------------|
B |-5--0----------------5--5------------------------|
G |-6--6----------------6--7------------------------| 
D |-7--7----------------7--7------------------------| 
A |-7--7----------------7--5------------------------|
E |-5--0----------------5--5------------------------|


When my head rolls off, Someone else's will turn.

E |-5--0----------------5--5------------------------|
B |-5--0----------------5--5------------------------|
G |-6--6----------------6--7------------------------| 
D |-7--7----------------7--7------------------------| 
A |-7--7----------------7--5------------------------|
E |-5--0----------------5--5------------------------|

And while I'm alive, I'll make tiny changes to earth.

E |-0----5------0-----------------------------------|
B |-0----5------0-----------------------------------|
G |-6----6------6-----------------------------------|
D |-7----7------7-----------------------------------| 
A |-7----7------7-----------------------------------|
E |-0----5------0-----------------------------------|

E |-------------------------------------------------|
B |--7-h 5----------7-h-5---------------------------|
G |--------7--6-----------7--6----------------------| 
D |-------------------------------------------------| 
A |-------------------------------------------------|
E |-------------------------------------------------|

E |-0----5------0-----------------------------------|
B |-0----5------0-----------------------------------|
G |-6----6------6-----------------------------------|
D |-7----7------7-----------------------------------| 
A |-7----7------7-----------------------------------|
E |-0----5------0-----------------------------------|

E |-------------------------------------------------|
B |--7-h 5----------7-h-5---------------------------|
G |--------7--6-----------7--6----------------------| 
D |-------------------------------------------------| 
A |-------------------------------------------------|
E |-------------------------------------------------|

While I'm alive, I'll make tiny changes to earth
And while I'm alive, I'll make tiny changes to earth.

Tiny changes to earth
Tiny changes to earth
E |-0----5------0-----------------------------------|
B |-0----5------0-----------------------------------|
G |-6----6------6-----------------------------------|
D |-7----7------7-----------------------------------| 
A |-7----7------7-----------------------------------|
E |-0----5------0-----------------------------------|

E |-------------------------------------------------|
B |--7-h 5----------7-h-5---------------------------|
G |--------7--6-----------7--6----------------------| 
D |-------------------------------------------------| 
A |-------------------------------------------------|
E |-------------------------------------------------|

E |-0----5------0-----------------------------------|
B |-0----5------0-----------------------------------|
G |-6----6------6-----------------------------------|
D |-7----7------7-----------------------------------| 
A |-7----7------7-----------------------------------|
E |-0----5------0-----------------------------------|

E |-------------------------------------------------|
B |--7-h 5----------7-h-5---------------------------|
G |--------7--6-----------7--6----------------------| 
D |-------------------------------------------------| 
A |-------------------------------------------------|
E |-------------------------------------------------|
Tap to rate this tab
# A B C D E F G H I J K L M N O P Q R S T U V W X Y Z