Song name
# A B C D E F G H I J K L M N O P Q R S T U V W X Y Z

Frightened Rabbit - The Woodpile tab

 
                                                           THE WOODPILE - Frightened Rabbit
 

Tabbed by: Mike308
E-mail: mike_taylor308@hotmail.co.uk

Tuning: Drop D

Hi Everyone

I couldn't find a tab for the whole song so I decided to create my own, I hope it's 
somewhat accurate!


INTRO + VERSE

e|---------------------------------------------------------------------------|
B|-----------------------------------------------------------------5---------|
G|----------------------------------0-----------------------0----------------|Repeat
D|-----4-----2--0-----0------0--------------------12--0----------------------|
A|-----------------------------------------12--------------------------------|
D|--0----0---------5-----4------0------0-------0---------5-----5-------------|


For the part where Scott sings "I'm trapped in a collapsing building" he plays something 
like this:

e|-------------------|
B|-2-3---------------|
G|-----4-2-----------|
D|-------------------|
A|-------------------|
D|-------------------|


"Come find me now, where I hide and, we'll speak in our secret tongues"

e|--0-----0----------|
B|--0-----0----------|
G|--2-----4----------|X4
D|--0-----0----------|
A|--4----/5----------|
D|--4----/5----------|


CHORUS

e|--0------0---0-----0-----0-------------0------0---0-----0----0-------------------------|
B|--7------5---7----10-----5-------------7------5---7-----3----2-------------------------|
G|--7------0---0-----0-----0-------------7------0---0-----0----0-------------------------|x2
D|--0------0---0-----0-----0-------------0------0---0-----0----0-------------------------|
A|--0------7---9----12-----7-------------0------7---9-----5----4-------------------------|
D|--0------7---9----12-----7-------------0------7---9-----5----4-------------------------|



VERSE 2

Mostly the same as the first, but if you want to change it up you can play it like this:

e|--5-------0--0--------|
B|--7-------0--0--------|
G|--7-------0--0--------|Repeat
D|--7-------5--4--------|
A|--5-------5--4--------|
D|--0-------5--4--------|



BRIDGE

e|-------------------|
B|--------3----------|
G|------2------------|Repeat
D|--2h4--------------|
A|-------------------|
D|-------------------|


SOLO

Some variations but this is the gist of it:

e|---------------------------------------------------------------|
B|--13-13-13-----/17-17-17-----\13-13-13-------/15-15-15---------|
G|--12-12-12-----/17-17-17-----\12-12-12-------/14-14-14---------|X4
D|---------------------------------------------------------------|
A|---------------------------------------------------------------|
D|---------------------------------------------------------------|



/ - Slide up
\ - Slide down
h - Hammer-on
Tap to rate this tab
# A B C D E F G H I J K L M N O P Q R S T U V W X Y Z