Song name
# A B C D E F G H I J K L M N O P Q R S T U V W X Y Z

Frightened Rabbit - Good Arms Vs Bad Arms tab

Band: Frightened Rabbit
Song: Good Arms Vs Bad Arms (Solo)
Album: The Midnight Organ Fight
Tabber: Ruairi Coleman

***Capo 3th***

Ok no point tabbing out the hold song again cas the one already up by Don Tago 
pretty much nailed it! 
So just the solo, enjoy & please rate =)


 /          Repeat x3          \
e|------------------------------|-----------------------------------|
b|------3---3---3---1---1---1---|-------0-----0-----0---------------|
g|----0---0---0---0---0---0-----|-----------------------0----0--0---|
d|------------------------------|---0h2---0h2---0h2-------------0---|
a|------------------------------|----------------------3---3----3---|
E|------------------------------|-----------------------------------|


 /          Repeat x3          \
e|------------------------------|--------------------------------------|
b|------3---3---3---1---1---1---|-------0-----0-----0------------------|
g|----0-------0---0-------0-----|-----------------------0----0--0--0---|
d|--------0-----------2---------|---0h2---0h2---0h2--------0----0--0---|
a|------------------------------|----------------------3---3----3--3---|
E|------------------------------|--------------------------------------|

Simple enough =)

Tap to rate this tab
# A B C D E F G H I J K L M N O P Q R S T U V W X Y Z