Song name
# A B C D E F G H I J K L M N O P Q R S T U V W X Y Z

Frijid Pink - Sailor tab

#----------------------------------PLEASE NOTE---------------------------------#
#This file is the author's own work and represents their interpretation of the #
#song. You may only use this file for private study, scholarship, or research. #
#------------------------------------------------------------------------------#

This is my first tab, it might not be completely correct but this is a great song to jam 
and this is how I play it,
I havent put the solo up, but it sounds good if you improvise in A pentatonic. Let me 
if you have any suggestions
or corrections to the tab, I dont have the best ear in the world. Listen to the song for 
rhythm, I didnt really
worry about it when I was doing the spacing on powertab or anything.


Artist - Frijid Pink
Album - Earth Omen
Song - Sailor


(E A D G B E)

  Intro and main part
                                ~
  Q               H   E Q.. S E H  H
|----------------------------------------|
|----------------------------------------|
|----------------------------------------|
|---------------------9------------9\----|
|-7\------------------7-------5h7--7-----|
|-----------------0---------0------------|


  Q=170
   H E E E E E E E E E E E E E E E E E
|-^5-------5-----------5-----------5------|
|-^5-----5---5-------5---5-------5---5----|
|-^7---7-------7---7-------7---7----------|
|-^7--------------------------------------|
|-^5-5-----------5-----------5------------|
|-----------------------------------------|


  Q=120
                                   ~
  Q  Q  Q  H      Q  E Q..   S E   H    H
|---------------|----------------|------------|
|---------------|----------------|------------|
|---------------|----------------|------------|
|---------------|----9-----------|------9\----|
|-3--2----------|----7---------5h|=7----7-----|
|-------3--0----|-0----------0---|------------|


  Q=170
   H    E E E E   E E E E E E E E   E E E E E     3x
|-^5----------5-|-----------5-----|-------5-------||
|-^5--------5---|-5-------5---5---|-----5---5----o||
|-^7------7-----|---7---7-------7-|---7-----------||
|-^7------------|-----------------|---------------||
|-^5----5-------|-----5-----------|-5------------o||
|---------------|-----------------|---------------||


Chorus

  Q Q  H   Q  Q  H  Q Q Q Q Q Q  Q  Q Q Q  Q  Q Q Q
|-------------------------------------------------------||
|------------------------------------------------------o||
|-------------------------------------------------------||
|-------------------------------------------------------||
|-7-9-10--12-14-12--9-7-9-9-9-9--9--9-9-9--9--9-9-9----o||
|-5-7--8--10-12-10--7-5-7-7-7-7--7--7-7-7--7--7-7-7-----||


________________________________________

Duration Legend
---------------
W - whole; H - half; Q - quarter; E - 8th; S - 16th; T - 32nd; X - 64th; a - acciaccatura
+ - note tied to previous; . - note dotted; .. - note double dotted
Uncapitalized letters represent notes that are staccato (1/2 duration)
Irregular groupings are notated above the duration line
Duration letters will always appear directly above the note/fret number it represents the
duration for.  Duration letters with no fret number below them represent rests.  Multi-
bar rests are notated in the form Wxn, where n is the number of bars to rest for.  Low
melody durations appear below the staff

Tablature Legend
----------------
 h   - hammer-on
 p   - pull-off
 b   - bend
 pb  - pre-bend
 r   - bend release (if no number after the r, then release immediately)
 /\  - slide into or out of (from/to "nowhere")
 s   - legato slide
 S   - shift slide
 - natural harmonic
[n]  - artificial harmonic
n(n) - tapped harmonic
 ~   - vibrato
 tr  - trill
 T   - tap
 TP  - trem. picking
 PM  - palm muting
\n/  - tremolo bar dip; n = amount to dip
 \n  - tremolo bar down
 n/  - tremolo bar up
/n\  - tremolo bar inverted dip
 =   - hold bend; also acts as connecting device for hammers/pulls
 <> - volume swell (louder/softer)
 x   - on rhythm slash represents muted slash
 o   - on rhythm slash represents single note slash

Misc Legend
-----------
 |  - bar
||  - double bar
||o - repeat start
o|| - repeat end
*|  - double bar (ending)
 :  - bar (freetime)
 $  - Segno
 &  - Coda
Tempo markers -  = BPM(8/16=s8/s16), where s8 = swing 8ths, s16 = swing 16ths

________________________________________
** Generated using Power Tab Editor by Brad Larsen: The Official Power Tab Web Site
Tap to rate this tab
 
# A B C D E F G H I J K L M N O P Q R S T U V W X Y Z