Song name
# A B C D E F G H I J K L M N O P Q R S T U V W X Y Z

Frio - Nag-iisa tab

Nag-iisa by: Frio
...
...mga 50 percent ako sure d2...
.....Tsempo nyo na lang strum pero ung chords nyan tama na


Intro:

Guitar2(lead)(walang distortion)
|-15-15-13-13----------------|    |--9---------9---------------|
|-16-16-15-15-16-16----------|    |--9---------9---------------|
|-------------15-15-12-12-12-|3x  |-----12-12------------------|
|-------------------13-13-13-|    |-----13-13------------------|
|----------------------------|    |----------------------------|
|----------------------------|    |----------------------------|


Verse 1:
Guitar2(lead)(walang destortion)
|----------------------------|    |----------------------------|
|--16-16-15-15---------------|    |----------------------------|
|--------------15-15---------|3x  |-----15-------15------------|
|--------------------13-13-13|    |--------13-13---------------|
|----------------------------|    |----------------------------| 
|----------------------------|    |----------------------------|

|----------------------------|
|--16-16-15-15---------------|
|--------------15-15---------|3x
|--------------------13-13-13|
|----------------------------|
|----------------------------|

tapos bago mag chorus papasok ung guitar 1

guitar1(Rhythm)(Distortion)
           B     Bb 
|----------------------------|
|----------------------------|
|----------------------------|
|---------9999--8888---------|
|---------9999--8888---------|
|---------7777--6666---------|

Chorus:
Guitar 1 (Rhythm)(Distortion)
   Eb    Bb    C    Ab Bb            Eb    Bb  F#m Ab C# Bb Eb
|----------------------------|    |----------------------------|
|----------------------------|    |----------------------------|
|-8888--------5555-----------|    |-8888--------44----66----88-|
|-8888--8888--5555-----------|    |-8888--8888--44-66-66-88-88-|
|-6666--8888--3333--66-88----|    |-6666--8888--22-66-44-88-66-|
|-------6666--------44-66----|    |-------6666-----44----66----|

Verse 2:
Guitar 1 (Rhythm)(Distorted)
   Eb    C     Ab    Eb                 B     Bb
|----------------------------|    |----------------------------|
|----------------------------|    |----------------------------|
|-8888--5555--------8888-----|2x  |----------------------------|
|-8888--5555--6666--8888-----|    |----9999--8888--------------|
|-6666--3333--6666--6666-----|    |----9999--8888--------------|
|-------------4444-----------|    |----7777--6666--------------|
  ****  ****  ****  ****

Guitar2(lead)(walang destortion)
|----------------------------|    |----------------------------|
|--16-16-15-15---------------|    |----------------------------|
|--------------15-15---------|3x  |-----15-------15------------|
|--------------------13-13-13|    |--------13-13---------------|
|----------------------------|    |----------------------------| 
|----------------------------|    |----------------------------|
 
|--15-15-13-13---------------|    |----------------------------|
|--------------16-16---------|    |---------11-----------------|
|--------------------12-12---|3x  |--12-12---------------------|
|----------------------------|    |----------------------------|
|----------------------------|    |----------------------------|
|----------------------------|    |----------------------------|

Chorus:
Guitar 1 (Rhythm)(Distortion)
   Eb    Bb    C    Ab Bb            Eb    Bb  F#m Ab C# Bb Eb
|----------------------------|    |------------------------------|
|----------------------------|    |------------------------------|
|-8888--------5555-----------|    |-8888--------44----66----88---|
|-8888--8888--5555-----------|    |-8888--8888--44-66-66-88-88---|
|-6666--8888--3333--66-88----|    |-6666--8888--22-66-44-88-66---|
|-------6666--------44-66----|    |-------6666-----44----66------|

Adlib:
Guitar1(Rhythm)(Distortion)
  F#m Ab C# Bb Eb
|-------------------|
|-------------------|
|- 44----66----8888-|5x
|--44-66-66-88-8888-|
|--22-66-44-88-6666-|
|-----44----66------|
 
Guitar2(Lead)(Distortion) sa pangalawa ulit nung Rhythm PAPASOK
|------------------------------|    |------------------------------|
|------------------------------|    |--16~--12~--9~--12~--11~------|
|-16~--13~--10~--13~--12~------|2x  |------------------------------|2x
|------------------------------|    |------------------------------|
|------------------------------|    |------------------------------|
|------------------------------|    |------------------------------|

Verse 3:
Guitar 1 (Rhythm)(Distorted)
   Eb    C     Ab    Eb               
|----------------------------|    
|----------------------------|    
|-8888--5555--------8888-----|2x 
|-8888--5555--6666--8888-----|    
|-6666--3333--6666--6666-----|    
|-------------4444-----------|    
  ****  ****  ****  ****

Guitar2(lead)(walang destortion)
|----------------------------|    |----------------------------|
|--16-16-15-15---------------|    |----------------------------|
|--------------15-15---------|3x  |-----15---------------------|
|--------------------13-13-13|    |----------------------------|
|----------------------------|    |----------------------------| 
|----------------------------|    |----------------------------|

Chorus:
Guitar 1 (Rhythm)(Distortion)
   Eb    Bb    C    Ab Bb   Eb    Bb  F#m Ab C# Bb Eb
|-------------------------------------------------------|
|-------------------------------------------------------|
|-8888--------5555---------8888--------44----66----88---|2x
|-8888--8888--5555---------8888--8888--44-66-66-88-88---|
|-6666--8888--3333--66-88--6666--8888--22-66-44-88-66---|
|-------6666--------44-66--------6666-----44----66------|

Outro:
Guitar1(Rhythm)(Distortion)
  F#m Ab C# Bb Eb
|-------------------|
|-------------------|
|- 44----66----8888-|5x
|--44-66-66-88-8888-|
|--22-66-44-88-6666-|
|-----44----66------|

Guitar2 (Lead) (Distortion)
|------------------------------|   
|------------------------------|   
|-16~--13~--10~--13~--12~------|5x  
|------------------------------|   
|------------------------------|    
|------------------------------|    

Sana maintindihan nyo hinulaan ko lang yan pero ok naman..

Made by:Lavern Vasallo
Date   :May 26, 2013
Tap to rate this tab
# A B C D E F G H I J K L M N O P Q R S T U V W X Y Z