Song name
# A B C D E F G H I J K L M N O P Q R S T U V W X Y Z

Friska Viljor - The Streets Sound Like tab

Friska Viljor - The Streets Sound Like

Capo 2nd Fret

Intro

|-------------------------------------------|
|-------------------------------------------|
|-----0----0----0----0----0----0----0----0--|
|--5----4----2----0----5----4----2----0-----|
|-------------------------------------------|
|-------------------------------------------|

|-------------------------------------------|
|-------------------------------------------|
|-----0----0----0----0----0----0----0----0--|
|--5----4----2----0-------------------------|
|----------------------3----2----0----5-----|
|-------------------------------------------|

x 2


Verse 1

|-------------------------------------------|
|-------------------------------------------|
|-----0----0----0----0----0----0----0----0--|
|--5----4----2----0----5----4----2----0-----|
|-------------------------------------------|
|-------------------------------------------|

|-------------------------------------------|
|-------------------------------------------|
|-----0----0----0----0----0----0----0----0--|
|--5----4----2----0-------------------------|
|----------------------3----2----0----5-----|
|-------------------------------------------|

x 4

The street sounds like a monster
grinding it's teeth all the time
looking for something to chew on
and i'm the only one it can find
i'm here down by my bed and
hiding with my breath in my throath
beads of sweat on my forehead
it's gonna fine me soon i can tell


Chorus (I'm not sure if there is another chord after the Bm, it sounds like there could 
but I can't make it out)

Em		G	Am

C		Bm

i'm always afraid of things that don't
make sense of me or i'll die
to take me back to when i was a child


Verse 2

|-------------------------------------------|
|-------------------------------------------|
|-----0----0----0----0----0----0----0----0--|
|--5----4----2----0----5----4----2----0-----|
|-------------------------------------------|
|-------------------------------------------|

|-------------------------------------------|
|-------------------------------------------|
|-----0----0----0----0----0----0----0----0--|
|--5----4----2----0-------------------------|
|----------------------3----2----0----5-----|
|-------------------------------------------|

x 4

i run around in circles
don't know what to do with myself
thinking oh my god it will blow now
if i don't forget about this
i need someone to talk to
to get my mind out of this
but it's too late they're not gonna answer
i have to try anyway


Chorus

Em		G	Am

C		Bm

i'm always afraid of things that don't
make sense of me or i'll die
to take me back to when i was a child


Outro

Em		G	Am

C		Bm
Tap to rate this tab
 
# A B C D E F G H I J K L M N O P Q R S T U V W X Y Z