Song name
# A B C D E F G H I J K L M N O P Q R S T U V W X Y Z

Frittenbude - Mindestens In 1000 Jahren chords

uning: Standard
Capo: 3. Bund

Andi's Akustik Version des Songs (abrufbar auf Youtube ;) )

/ = slide
p = pick

e|-2----3----5----3----|
h|---3----3----3----3--|
g|---------------------|
d|---------------------|    Intro: Guitar 1
a|---------------------|
e|---------------------|

e|---------------------|
h|---------------------|
g|--7------------------|
d|--7--7--9--5---------|    Intro: Guitar 2
a|--5--7--9--5---------|
e|-----5--7--3---------|

Vers: Guitar 1
Improvisiertes Gezupfe, welches g'rad'
dazugepasst hat *g*

e|---------------------|
h|---------------------|
g|--7--9---------------|
d|--7--9--9--5---------|   Vers: Guitar 2
a|--5--7--9--5---------|
e|--------7--3---------|

e|--2/5p2--0-----------2/5p--0---------|
h|------------2--3---------------2/3---|
g|-------------------------------------|
d|-------------------------------------|    Refrain: Guitar 1
a|-------------------------------------|
e|-------------------------------------|

e|---------------------|
h|---------------------|
g|--7------------------|
d|--7--7--9--5---------|    Refrain: Guitar 2
a|--5--7--9--5---------|
e|-----5--7--3---------|


Bridge gleicht dem Intro ;)

e|-2---2---2---2----3---3---3---3-----5---5---5---5-----3---3---3---3-------|
h|---3---3---3---3----3---3---3---3-----3---3---3---3-----3---3---3---3-----|
g|--------------------------------------------------------------------------|
d|--------------------------------------------------------------------------|    Ending: 1
a|--------------------------------------------------------------------------|
e|--------------------------------------------------------------------------|

e|---------------------|
h|---------------------|
g|--7------------------|
d|--7--7--9--5---------|    Ending: Guitar 2
a|--5--7--9--5---------|
e|-----5--7--3---------|


hv fun
Andi
Tap to rate this tab
 
# A B C D E F G H I J K L M N O P Q R S T U V W X Y Z