Song name
# A B C D E F G H I J K L M N O P Q R S T U V W X Y Z

Fritz Kalkbrenner - Facing The Sun tab

-------------------------------------------------------------------------------
			     FACING THE SUN - Fritz Kalkbrenner
-------------------------------------------------------------------------------
Tabbed by: Moritz König
Email: moritzkoenig@gmail.com

Tuning: capo on 4th fret

pattern continues throughout the song

e|-------2-----2---------2-----2---|
H|-------0-----0---------0-----0---|
G|-------0-----0---------0-----0---|
D|-----2---------------2-----------|
A|---2---------------2-------------|
E|-0-------0-------0-------0-------|

e|-------2-----2---------2-----2---|
H|-------0-----0---------0-----0---|
G|-------0-----0---------0-----0---|
D|-----0---------------0-----------|
A|---2---------------2-------------|
E|-3-------3-------3-------3-------|

e|---------------------------------|
H|-------3-----3---------3-----3---|
G|-------2-----2---------0-----0---|
D|-0-------0-------0-------0-------|
A|---------------------------------|
E|---------------------------------|

e|---------------------------------|
H|---------------------------------|
G|---------------2-----2-----2-----|
D|-------4-----4-----------4-------|
A|-5-------5-------5-------5-------|
E|---------------------------------|



artist: http://www.fritzkalkbrenner.com/
Tap to rate this tab
 
# A B C D E F G H I J K L M N O P Q R S T U V W X Y Z