Fritz Kalkbrenner - Facing The Sun tab

-------------------------------------------------------------------------------
			     FACING THE SUN - Fritz Kalkbrenner
-------------------------------------------------------------------------------
Tabbed by: Moritz König
Email: moritzkoenig@gmail.com

Tuning: capo on 2nd fret

pattern continues throughout the song

e|-------4-----4---------4-----4---|
H|-------2-----2---------2-----2---|
G|-------2-----2---------2-----2---|
D|-----4---------------4-----------|
A|---4---------------4-------------|
E|-2-------2-------2-------2-------|

e|-------4-----4---------4-----4---|
H|-------2-----2---------2-----2---|
G|-----2-------2-------2-------2---|
D|---2---------------2-------------|
A|-0--------0------0--------0------|
E|---------------------------------|

e|---------------------------------|
H|-------0-----0-------------------|
G|-------1-----1---------2-----2---|
D|-------2-----2---------2-----2---|
A|---------------------------------|
E|-0-------0-------0-------0-------|

e|---------------------------------|
H|----------------0-----------0----|
G|-------1--------------1----------|
D|-----2-------2------2------------|
A|-0-------0-------0-------0-------|
E|---------------------------------|



artist: http://www.fritzkalkbrenner.com/
Tap to rate this tab
 
# A B C D E F G H I J K L M N O P Q R S T U V W X Y Z