Song name
# A B C D E F G H I J K L M N O P Q R S T U V W X Y Z

Frogs - Adam & Steve tab

Date: Mon, 01 Dec 1997 15:51:02 PST
From: Jesse Alora 
Subject: TAB: Adam & Steve by The Frogs

ADAM & STEVE - from "What's Up Matador?"
written & recorded by THE FROGS - tab by Jesse Alora
The Frogs Web Site: www.geocities.com/Broadway/7100


         VERSE
        e--------------------------------------------------
        B--------------------------------------------------
        G--------------------------------------------------
        D--------------------------------------------------
        A--2-2-2-2-2-2--2-2-2-2-2-2-2-2-2-2--10--10\\---2--
        E--0-0-0-0-3-0--0-0-0-0-0-0-3-0-0-0---8---8\\---0--

        e--------------------------------------------------
        B--------------------------------------------------
        G--------------------------------------------------
        D--------------------------------------------------
        A--2-2-2-2-2-2--2-2-2-2-2-2-2-2-2-2--8--8\\---2----
        E--0-0-0-0-3-0--0-0-0-0-0-0-3-0-0-0--6--6\\---0----

         CHORUS
        e---------------------------------------------------
        B---------------------------------------------------
        G---------------------------------------------------
        D---------------------------------------------------
        A------12-----10------12-----12---------------------
        E------10------8------10------8---------------------

         SOLO
        e---------------------------------------------------
        B---------------------------------------------------
        G---------------------------------------------------
        D---------------------------------------------------
        A------7~------5~------4~------3~---2~--------------
        E---------------------------------------------------


         Adam and Eve, Adam and Steve
         Which is wrong and which is right?
         Look at the sperm on my lips
         Look at the sperm on my hips
         Look at the sperm
         Look at the sperm, Steve

______________________________________________________
Get Your Private, Free Email at http://www.hotmail.com
Tap to rate this tab
# A B C D E F G H I J K L M N O P Q R S T U V W X Y Z