Song name
# A B C D E F G H I J K L M N O P Q R S T U V W X Y Z

From Ashes Rise - Concrete And Steel tab

Artist: From Ashes Rise
Song: Concrete and Steel
Album: Concrete and Steel

Tuning: 1 and 1/2 Steps down. (Db Gb B E Ab Db)

Intro:

Db|------------------------------|
Ab|------------------------------|
E |----------7~------------------|
B |-7~--7----0~------------------|
Gb|-7~--7------------(pickslide)-|
Db|-5~--5------------------------|

Verse: (play four times)
("Gaze at a landscape...")
Db|-------------------------------------------------------|
Ab|-------------------------------------------------------|
E |-7-7--7-7-7--7-8-7-5-8-7-7-5-5--5-7-7--7---------------|
B |-0-0--0-0-0--0-0-0-0-0-0-0---------------5-5--5-5-5--5-|
Gb|-------------------------------------------------------|
Db|-------------------------------------------------------|

Pre-Chorus:
("...degree...")
Db|--------------------------------------|
Ab|--------------------------------------|
E |-7~---5/7~---5/7~---5/7~--------------|
B |-7~---5/7~---5/7~---5/7~--(pickslide)-|
Gb|-5~---3/5~---3/5~---3/5~--------------|
Db|--------------------------------------|

Chorus: (play four times)
("The ones in the labcoats...")
Db|---------------------------------------------------------|
Ab|---------------------------------------------------------|
E |-7-7--7-7-7--7-7-7--7-7-7--7-5-5--5-5-5--5-7-7--7-10-9-7-|
B |-7-7--7-7-7--7-7-7--7-7-7--7-3-3--3-3-3--3-5-5--5--8-7-5-|
Gb|-5-5--5-5-5--5-5-5--5-5-5--5-----------------------------|
Db|---------------------------------------------------------|

Breakdown part 1:
(Guitar 1)
Db|-----------------------|
Ab|------6-5--------6-5---|
E |----------5----------5-|
B |-2~---------2~---------|
Gb|-2~---------2~---------|
Db|-0~---------0~---------|

(Guitar 2)
Db|-----------------------|
Ab|-----------------------|
E |-----------------------|
B |-2~---3-2---2~---3-2---|
Gb|-2~-------3-2~-------3-|
Db|-0~---------0~---------|

Breakdown part 2:
(Guitar 1)
Db|---------------|--------12(bend)-|
Ab|---------6-5---|-----------------|
E |---4-5-4-----5-|-end on----------|
B |---------------|-----------------|
Gb|---------------|-----------------|
Db|-0-------------|-----------------|

(Guitar 2)
Db|---------------|-------------|
Ab|---------------|-------------|
E |---------------|-------------|
B |---------3-2---|-end on--3~--|
Gb|---2-3-2-----3-|-------------|
Db|-0-------------|-------------|

Outro: (play four times)

Db|---------------------------------------------------------|
Ab|---------------------------------------------------------|
E |-----------------------------5-5--5-5-5--5-7-7--7-7-7--7-|
B |-7-7--7-7-7--7-7-7--7-7-7--7-3-3--3-3-3--3-5-5--5-5-5--5-|
Gb|-5-5--5-5-5--5-5-5--5-5-5--5-----------------------------|
Db|---------------------------------------------------------|

End on:
Db|-------|
Ab|-------|
E |-7-7-7-|
B |-7-7-7-|
Gb|-5-5-5-|
Db|-------|
Tap to rate this tab
# A B C D E F G H I J K L M N O P Q R S T U V W X Y Z