Song name
# A B C D E F G H I J K L M N O P Q R S T U V W X Y Z

From Ashes Rise - Hell In The Darkness tab

Artist: From Ashes Rise
Song: Hell in the Darkness
Album: Nightmares

Tabbed by: The Speed (straightfaced10@hotmail.com)

Guitar tab
(Tuning: Db Ab Db Gb Bb Eb) Drop Db

Disclaimer:
I am a drummer, not an actual guitarist, though I play sometimes.
This song is probably not 100% correct, and I'm missing a part or two.
And the rhythm isn't fully tabbed for some parts, but it's easy to figure out.
Otherwise, have fun! This is a great song by a great band.

--------------------------------------------------------------------------

Intro (0:00)

Eb|-----------------------------|
Bb|-----------------------------|
Gb|-7-3-5-5-------------5---8---|
Db|-7-3-5-5---5-5---8---5---8---|
Ab|-5-1-3-3---5-5---8---3---6---|
Db|-----------5-5---8-----------|

Eb|----------------|--------------------|
Bb|----------------|--------------------|
Gb|---------5---8--|------------------7-|
Db|-5---8---5---8--|
                    
Tap to rate this tab
# A B C D E F G H I J K L M N O P Q R S T U V W X Y Z