Song name
# A B C D E F G H I J K L M N O P Q R S T U V W X Y Z

From Ashes Rise - Mandate tab

Artist: From Ashes Rise
Song: The Mandate
Album: Nightmares
Tabbed by: The Speed (straightfaced10@hotmail.com)

Tuning: 1 and 1/2 Steps down. (Db Gb B E Ab Db)


Intro/Outro
(part a):

Guitar 1
Db|-0-----------------------|
Ab|-----0---1h3---0-----0---|
E |-------------------------| Play this the whole time.
B |---2---2-----2-----2---2-|
Gb|-------------------------|
Db|-------------------------|

When the band kicks in,
Guitar 2
Db|-------------|
Ab|-------------|
E |-9~----7~----|
B |-9~----7~----|
Gb|-7~----5~----|
Db|-0~----------|

Intro/Outro
(part b):

Both Guitars
Db|--------------------------|
Ab|--------------------------|
E |-9--9--7-9----------------|
B |-9--9--7-9--2-2-2-2-2-2-2-| Play four times
Gb|-7--7--5-7--2-2-2-2-2-2-2-|
Db|------------0-0-0-0-0-0-0-|

Play Part a again

Intro (part b)
Db|------------------------------------------|
Ab|--------------------------Play------------|
E |-9--9--7-9----------------three-9--9--7-9-|
B |-9--9--7-9--2-2-2-2-2-2-2-times-9--9--7-9-|
Gb|-7--7--5-7--2-2-2-2-2-2-2-------7--7--5-7-|
Db|------------0-0-0-0-0-0-0-----------------|

Kick-in:
Db|------------------------|
Ab|------------------------|
E |-12-11-7-9~~------------|
B |-12-11-7-9~~------------|
Gb|-10--9-5-7~~-/pickslide/|
Db|-------------/pickslide/|


Verse:
("Take a rigid allegiance...")
Db|------------------------------------(0)----------|
Ab|----------------------------------------(0)------|
E |-------------------------------------------------|
B |-8-7-5-8-7-5-8-7-5-7-7-5-2-2-2-2-2-2-2-2-2-2-2-2-|
Gb|-5-5-5-5-5-5-5-5-5-5-5-5-2-2-2-2-2-2-2-2-2-2-2-2-|
Db|-------------------------0-0-0-0-0-0-0-0-0-0-0-0-|

(All that glitters...")
Db|-------------------------------------------------|
Ab|-------------------------------------------------|
E |-7-7-7-7-7-7-7-7-7-7-7-7-------------------------|
B |-7-7-7-7-7-7-7-7-7-7-7-7-2-2-2-2-2-2-2-2-2-2-2-2-|
Gb|-5-5-5-5-5-5-5-5-5-5-5-5-2-2-2-2-2-2-2-2-2-2-2-2-|
Db|-------------------------0-0-0-0-0-0-0-0-0-0-0-0-|

("For all that...")
Db|------------------------------------(0)----------|
Ab|----------------------------------------(0)------|
E |-------------------------------------------------|
B |-8-7-5-8-7-5-8-7-5-7-7-5-2-2-2-2-2-2-2-2-2-2-2-2-|
Gb|-5-5-5-5-5-5-5-5-5-5-5-5-2-2-2-2-2-2-2-2-2-2-2-2-|
Db|-------------------------0-0-0-0-0-0-0-0-0-0-0-0-|

Db|-------------------------|
Ab|-------------------------|
E |-7-7-7-7-7-7-7-7-7-7-7-7-|
B |-7-7-7-7-7-7-7-7-7-7-7-7-|
Gb|-5-5-5-5-5-5-5-5-5-5-5-5-|
Db|-------------------------|


Chorus: 
("Take your phantoms...")
Db|--------------------------------------------------------|
Ab|--------------------------------------------------------|
E |-------------------------------12-9-9-9-9-9-7-7-7-9-9-9-|
B |-7-7-7-7-7-7-10/12-12-10-10-10-12-9-9-9-9-9-7-7-7-9-9-9-|
Gb|-7-7-7-7-7-7-10/12-12-10-10-10-10-7-7-7-7-7-5-5-5-7-7-7-|
Db|-5-5-5-5-5-5-8//10-10-8--8--8-----0-0-0-0-0-------------|
Play two times.

Db|--------------------------------|
Ab|--------------------------------|
E |-12-11-----12-11----9-9-9-9-9-9-| Play two
B |-12-11-12--12-11-12-9-9-9-9-9-9-|  times
Gb|-10-9--12--10-9--12-7-7-7-7-7-7-|
Db|-------10--------10-------------|


Play Verse again.


Altered Chorus
("Waste away...")
Db|-----------------------------------------------------|
Ab|-----------------------------------------------------|
E |-------------------------------------10-9----10-9----|
B |-7-7-7-7-7-7-5-5-5-5-5-5-2-2-2-2-2-2-10-9-10-10-9-10-|
Gb|-7-7-7-7-7-7-5-5-5-5-5-5-2-2-2-2-2-2-8--7-10-8--7-10-|
Db|-5-5-5-5-5-5-3-3-3-3-3-3-0-0-0-0-0-0------8-------8--|

Db|--------------------------------------------------|
Ab|--------------------------------------------------|
E |-------------------------------------7-7-7-9-9-9--|
B |-7-7-7-7-7-7-5-5-5-5-5-5-2-2-2-2-2-2-7-7-7-9-9-9--|
Gb|-7-7-7-7-7-7-5-5-5-5-5-5-2-2-2-2-2-2-5-5-5-7-7-7--|
Db|-5-5-5-5-5-5-3-3-3-3-3-3-0-0-0-0-0-0--------------|

Db|--------------------------------|
Ab|--------------------------------|
E |-12-11-----12-11----9-9-9-9-9-9-|
B |-12-11-12--12-11-12-9-9-9-9-9-9-|
Gb|-10-9--12--10-9--12-7-7-7-7-7-7-|
Db|-------10--------10-------------|

Db|------------------------|
Ab|------------------------|
E |-12-11-----12-11----9/--|
B |-12-11-12--12-11-12-9/--|
Gb|-10-9--12--10-9--12-7/--|
Db|-------10--------10-----|


Outro:

It's the same as the intro. Figure it out.

That's about it. It might be missing some second guitar parts, 
but I'm not talented. Enjoy!
Tap to rate this tab
# A B C D E F G H I J K L M N O P Q R S T U V W X Y Z