Song name
# A B C D E F G H I J K L M N O P Q R S T U V W X Y Z

From Autumn To Ashes - Streamline tab

Help us improve GuitareTab! Take a short survey!
----------------------------------------------------------------------------
			     STREAMLINE - From Autumn To Ashes
----------------------------------------------------------------------------
Tabbed by: brandon5pennies
Email: brandon.nickel@comcast.net

Tuning: Standard

I'm pretty sure that most of this is correct. The only thing I'm unsure about are the 
that are played during the chorus. If anybody has any corrections or questions e-mail me.

Use slight delay at intro.

0:00-0:22

E|------5-0-----0-7-7p5--|
B|-----------------------|
G|-----------------------|
D|-0--------0------------| X2
A|---2--------2----------|
E|-----------------------|

Turn off the delay and use a clean setting.

0:23-1:10

E|-----------------------0----5--|
B|-------7-----------------------|
G|-----6---6----------7----7-----|
D|---7-------7------7------------| X8
A|-5-----------5-----------------|
E|---------------7---------------|


1:11-1:35

E|-------------------------------------------------|
B|-------------------------------------------------|
G|-11-11-11-11-11-11-11-11-9-9-9-9-13-13-13-14-14--|
D|-------------------------------------------------| X3
A|-9--9--9--9--9--9--9--9--7-7-7-7-11-11-11-12-12--|
E|-------------------------------------------------|

Last time play this.

E|----------------------------------------------------|
B|----------------------------------------------------|
G|-11-11-11-11-11-11-11-11-9-9-9-9-13-13-13-14-14-14--|
D|----------------------------------------------------|
A|-9--9--9--9--9--9--9--9--7-7-7-7-11-11-11-12-12-12--|
E|----------------------------------------------------|

1:36-1:59

E|-----------------------0----5--|
B|-------7-----------------------|
G|-----6---6----------7----7-----|
D|---7-------7------7------------| X4
A|-5-----------5-----------------|
E|---------------7---------------|

2:00-2:23

E|-------------------------------------------------|
B|-------------------------------------------------|
G|-11-11-11-11-11-11-11-11-9-9-9-9-13-13-13-14-14--|
D|-------------------------------------------------| X3
A|-9--9--9--9--9--9--9--9--7-7-7-7-11-11-11-12-12--|
E|-------------------------------------------------|

Last time play this.

E|----------------------------------------------------|
B|----------------------------------------------------|
G|-11-11-11-11-11-11-11-11-9-9-9-9-13-13-13-14-14-14--|
D|----------------------------------------------------|
A|-9--9--9--9--9--9--9--9--7-7-7-7-11-11-11-12-12-12--|
E|----------------------------------------------------|

Mute all strings.

2:20-2:23

E|-xx-xx-xxxx--|
B|-xx-xx-xxxx--|
G|-xx-xx-xxxx--|
D|-xx-xx-xxxx--|
A|-xx-xx-xxxx--|
E|-xx-xx-xxxx--|

This is the part I'm unsure about.

2:24-2:46

E|------------------------------------------|
B|------------------------------------------|
G|------------------------------------------|
D|-12-12-12-12-12-12-12-12-9-9-9-9-9-9-9-9--| X4
A|-12-12-12-12-12-12-12-12-9-9-9-9-9-9-9-9--|
E|-10-10-10-10-10-10-10-10-7-7-7-7-7-7-7-7--|

This may not be the exact number of times the chords are strummed but it's pretty close.

2:47-3:08

E|--------------------------------------------------------------------------|
B|--------------------------------------------------------------------------|
G|-14-14-14-13-13-13-14-14-16-16-16-14-14-14-13-14-19-19-19-18-18-18-18-18--|
D|--------------------------------------------------------------------------|
A|-12-12-12-11-11-11-12-12-14-14-14-12-12-12-11-12-17-17-17-16-16-16-16-16--|
E|--------------------------------------------------------------------------|

E|--------------------------|
B|--------------------------|
G|-21-21-21-19-19-19-18-19--|
D|--------------------------| X2
A|-19-19-19-17-17-17-16-17--|
E|--------------------------|

3:09-3:31

E|-------------------------------------------------|
B|-------------------------------------------------|
G|-11-11-11-11-11-11-11-11-9-9-9-9-13-13-13-14-14--|
D|-------------------------------------------------| X3
A|-9--9--9--9--9--9--9--9--7-7-7-7-11-11-11-12-12--|
E|-------------------------------------------------|

Last time play this.

E|----------------------------------------------------|
B|----------------------------------------------------|
G|-11-11-11-11-11-11-11-11-9-9-9-9-13-13-13-14-14-14--|
D|----------------------------------------------------|
A|-9--9--9--9--9--9--9--9--7-7-7-7-11-11-11-12-12-12--|
E|----------------------------------------------------|

Another guitar comes in with a solo like thing after you play this 4 times.

3:32-4:16

E|------------------------------------------|
B|------------------------------------------|
G|------------------------------------------|
D|-12-12-12-12-12-12-12-12-9-9-9-9-9-9-9-9--| X8
A|-12-12-12-12-12-12-12-12-9-9-9-9-9-9-9-9--|
E|-10-10-10-10-10-10-10-10-7-7-7-7-7-7-7-7--|

Back to clean channel. End on 5 after you play this 8 times.

4:17-4:41

E|----------------|
B|-------7--------|
G|-----6---6------|
D|---7-------7----| X8
A|-5-----------5--|
E|----------------|

| /  slide up
| \  slide down
| h  hammer-on
| p  pull-off
| ~  vibrato
| +  harmonic
| x  Mute note
===============================================================================
Related for Streamline tab