Song name
# A B C D E F G H I J K L M N O P Q R S T U V W X Y Z

From Autumn To Ashes - Daylight Slaving tab

 I'm Positive this tab is 100%, the other tabs didn't sound right so here is a perfect tab.
 The only part with minimal difficulty is getting the hang of the first solo, which 
really that hard. otherwise its an easy tab.
This is a really great song from a band i'd never heard of before, so, enjoi!


Guitar I
E|---------------------------------------------------------|
B|-10-------14----------14----------14----------14---------|
G|------------11--14-11----11-14-11----11-14-11---11-14-11-|
D|---------------------------------------------------------|
A|---------------------------------------------------------|
E|---------------------------------------------------------|
Guitar I
E|-------------------------------------------------------12|
B|-15----------15----------15----------15-----------15-----|
G|----11-14-11----11-14-11----11-14-11---11-14-11----------|
D|---------------------------------------------------------|
A|---------------------------------------------------------|
E|---------------------------------------------------------|
Guitar I
E|------------------------------------------------|
B|-14----------14----------14----------14---------|
G|----11-14-11----11-14-11----11-14-11---11-14-11-|
D|------------------------------------------------|
A|------------------------------------------------|
E|------------------------------------------------|
Guitar I
E|-------------------------------------------------------12|
B|-15----------15----------15----------15-----------15-----|
G|----11-14-11----11-14-11----11-14-11---11-14-11----------|
D|---------------------------------------------------------|
A|---------------------------------------------------------|
E|---------------------------------------------------------|

Guitar II
Guitar II Plays This Riff through every bar with first solo.
P.M. --------------------------------------------------------|
E|-----------------------------------------------------------|
B|-----------------------------------------------------------|
G|-----------------------------------------------------------|
D|-0-0-0-0--0-0-0-0--0-0-0-0-----8-8-8-8--8-8-8-8--8-8-10----|
A|-0-0-0-0--0-0-0-0--0-0-0-0-----8-8-8-8--8-8-8-8--8-8-10----|
E|-0-0-0-0--0-0-0-0--0-0-0-0-----8-8-8-8--8-8-8-8--8-8-10----|

Guitar I
E|---------------------------------------------------------|
B|-10-------14----------14----------14----------14---------|
G|------------11--14-11----11-14-11----11-14-11---11-14-11-|
D|---------------------------------------------------------|
A|---------------------------------------------------------|
E|---------------------------------------------------------|
Guitar I
E|-------------------------------------------------------12|
B|-15----------15----------15----------15-----------15-----|
G|----11-14-11----11-14-11----11-14-11---11-14-11----------|
D|---------------------------------------------------------|
A|---------------------------------------------------------|
E|---------------------------------------------------------|
Guitar I
E|------------------------------------------------|
B|-14----------14----------14----------14---------|
G|----11-14-11----11-14-11----11-14-11---11-14-11-|
D|------------------------------------------------|
A|------------------------------------------------|
E|------------------------------------------------|
Guitar I
E|-------------------------------------------------------12|
B|-15----------15----------15----------15-----------15-----|
G|----11-14-11----11-14-11----11-14-11---11-14-11----------|
D|---------------------------------------------------------|
A|---------------------------------------------------------|
E|---------------------------------------------------------|

E|------------------------------------------------------------------|
B|------------------------------------------------------------------|
G|------------------------------------------------------------------|
D|-7------------0------------1------------3-------------------------|
A|-7------------0------------1------------3-------------------------|
E|-7------------0------------1------------3-------------------------|

E|--------------------------------------------|
B|--------------------------------------------|
G|--------------------------------------------|
D|-7------------0------------3------------1---|
A|-7------------0------------3------------1---|
E|-7------------0------------3------------1---|

Start over and play the tab through the whole song.
Tap to rate this tab
# A B C D E F G H I J K L M N O P Q R S T U V W X Y Z