Song name
# A B C D E F G H I J K L M N O P Q R S T U V W X Y Z

From Autumn To Ashes - Chloroform Perfume tab

This is the punk goes acoustic version...


Gtr 1
E|----------0-------------0----------------0--------------0---------|
B|-----0-0--0---0-0h1---0---0---1----------0--0-----------0-------0-|
G|---4-0------0-------0-------0---------0------0--------0-------0---|
D|-2-----2------------------------2-4-0---------0-2h4-0-----4-0-----|
A|------------------------------------------------------------------|
E|------------------------------------------------------------------|

Gtr 2
E|-------------3--------3-2-------------3-2---2------------------|
B|--------------------------3-0-------------3--------------------|
G|-------0-----------0--------0-----0--------------0---------0---|
D|-----4---4-------2---------------------------------0---------0-|
A|---2-------2---3----------------2--------------2---------2-----|
E|-0----------------------------3--------------3--------2--------|

guitar 2 changes a little bit throughout the verse, ill tab the rest out later.
Tap to rate this tab
# A B C D E F G H I J K L M N O P Q R S T U V W X Y Z