Song name
# A B C D E F G H I J K L M N O P Q R S T U V W X Y Z

From Autumn To Ashes - Delusions Of Grandeur tab

FROM AUTUMN TO ASHES

DELUSIONS OF GRANDEUR INTRO

D-G-C-F-A-D

TABBED BY andherembrace




--------------------------------------------------------------------------|
--------------------------------------------------------------------------|
--------------------------------------------------------------------------|
10-10-10-10-10-9-9-9-9-10-10-10-10-7-7-5-7-7-7-7-7-5-5-5-5-7-7-7-7-10-10--|
-0--0--0--0--0-0-0-0-0--0--0--0--0-7-7-5-8-8-8-8-8-7-7-7-7-5-5-5-5--8--8-0|
--------------------------------------------------------------------------|
 *  *  *  *  * * * * *  *  *  *  * * * * * * * * * * * * * * * * *  *  * * 


--------------------------------------------------------------------------|
--------------------------------------------------------------------------|
--------------------------------------------------------------------------|
10-10-10-10-10-9-9-9-9-10-10-10-10-7-7-5-7-7-7-7-7-5-5-5-5-7-7-7-7-10-10--|
-0--0--0--0--0-0-0-0-0--0--0--0--0-7-7-5-8-8-8-8-8-7-7-7-7-5-5-5-5--8--8-0|
--------------------------------------------------------------------------|
 *  *  *  *  * * * * *  *  *  *  * * * * * * * * * * * * * * * * *  *  * * 


--------------------------------------------------------------------------|
--------------------------------------------------------------------------|
--------------------------------------------------------------------------|
10-10-10-10-10-9-9-9-9-10-10-10-10-7-7-5-7-7-7-7-7-5-5-5-5-7-7-7-7-10-10--|
-0--0--0--0--0-0-0-0-0--0--0--0--0-7-7-5-8-8-8-8-8-7-7-7-7-5-5-5-5--8--8-0|
--------------------------------------------------------------------------|
 *  *  *  *  * * * * *  *  *  *  * * * * * * * * * * * * * * * * *  *  * * 


--------------------------------------------------------------------------|
--------------------------------------------------------------------------|
--------------------------------------------------------------------------|
10-10-10-10-10-9-9-9-9-10-10-10-10-7-7-5-7-7-7-7-7-5-5-5-5-7-7-7-7-10-10--|
-0--0--0--0--0-0-0-0-0--0--0--0--0-7-7-5-8-8-8-8-8-7-7-7-7-5-5-5-5--8--8-0|
--------------------------------------------------------------------------|
 *  *  *  *  * * * * *  *  *  *  * * * * * * * * * * * * * *  






1
----------------_-----------------------------------------|
-5-----5-------/ \----------------------------------------|
-5-----5----4-4-5-4---------------------------------------|
-7-----7------------7-5---------------------5-----5-5-5---|
-7-----7----------------2-2-2-3-----3-3-3---3-----3-3-3---|
-5-----5----------------0-0-0-1-----1-1-1-0-3-----3-3-3-0-|

2
----------------_-----------------------------------------|
-5-----5-------/ \----------------------------------------|
-5-----5----7-7-9-7---------------------------------------|
-7-----7-----------10-9---------------------5-----5-5-5---|
-7-----7----------------2-2-2-3-----3-3-3---3-----3-3-3---|
-5-----5----------------0-0-0-1-----1-1-1-0-3-----3-3-3-0-|



1
----------------_-------------------------------------------------------|
-5-----5-------/ \----------------------------------------5-------------|
-5-----5----4-4-5-4---------------------------------------5-------------|
-7-----7------------7-5---------------------5---5-5-5-5---7-------------|
-7-----7----------------2-2-2-3-----3-3-3---3---3-3-3-3---7-------------|
-5-----5----------------0-0-0-1-----1-1-1-0-3---3-3-3-3-0-5-------------|

2
----------------_-------------------------------------------------------|
-5-----5-------/ \-----------------------------------------5------------|
-5-----5----7-7-9-7----------------------------------------5------------|
-7-----7-----------10-9---------------------5----5-5-5-5---7------------|
-7-----7----------------2-2-2-3-----3-3-3---3----3-3-3-3---7------------|
-5-----5----------------0-0-0-1-----1-1-1-0-3----3-3-3-3-0-5------------|

Tap to rate this tab
# A B C D E F G H I J K L M N O P Q R S T U V W X Y Z