Song name
# A B C D E F G H I J K L M N O P Q R S T U V W X Y Z

From Autumn To Ashes - Milligram Smile tab

                                Milligram Smile                                 

Guitars 1&2 are in this Transcription
                                                            From Autumn To Ashes
Lead Guitar
E-A-D-G-B-E


      S  S  S  S  S  S  S  S  S  S  S  S  S S S S  
D||-----------------------------------------------|
A||-----------------------------------------------|
F||--11-11-11-11-11-11-11-11-11-11-11-11-11-x-x-x-|
C||-----------------------------------------------|
G||---9--9--9--9--9--9--9--9--9--9--9--9--9-x-x-x-|
C||-----------------------------------------------|


  S S S S S S S S S S S S S S S S    S S S S S S S S S S S S S S S S  
----------------------------------|----------------------------------|
----------------------------------|----------------------------------|
--9-9-9-9-9-9-9-9-9-9-9-9-9-x-x-x-|--7-7-7-7-7-7-7-7-7-7-7-7-7-x-x-x-|
----------------------------------|----------------------------------|
--7-7-7-7-7-7-7-7-7-7-7-7-7-x-x-x-|--5-5-5-5-5-5-5-5-5-5-5-5-5-x-x-x-|
----------------------------------|----------------------------------|


    PM   PM      PM   PM     PM   PM      PM   PM            
  S T  T T  T  S T  T T  T S T  T T  T  S T  T T  T S S S S  
------------------------------------------------------------|
--------------10-----------------------10-------------------|
--9-9----9-----9-9----9----9-9----9-----9-9----9----9-9-9-9-|
------------------------------------------------------------|
--7-7----7-----7-7----7----7-7----7-----7-7----7----7-7-7-7-|
------------------------------------------------------------|


   S  S  S  S  S  S  S  S  S  S  S  S  S  S  S  S  
--------------------------------------------------|
--------------------------------------------------|
--11-11-11-11-11-11-11-11-11-11-11-11-11-11-11-11-|
--------------------------------------------------|
---9--9--9--9--9--9--9--9--9--9--9--9--9--9--9--9-|
--------------------------------------------------|


   S  S  S  S  S  S  S  S  S  S  S  S  S  S  S  S  
--------------------------------------------------|
--------------------------------------------------|
--13-13-13-13-13-13-13-13-14-14-16-14-14-14-13-13-|
--------------------------------------------------|
--11-11-11-11-11-11-11-11-12-12-14-12-12-12-11-11-|
--------------------------------------------------|


   S  S  S  S  S  S  S  S  S  S  S  S  S  S  S  S  
--------------------------------------------------|
--------------------------------------------------|
--19-19-19-18-18-18-14-14-19-19-19-18-18-18-14-14-|
--------------------------------------------------|
--17-17-17-16-16-16-12-12-17-17-17-16-16-16-12-12-|
--------------------------------------------------|


   S  S  S  S  S  S  S  S  S  S  S  S  S  S  S  S  
--------------------------------------------------|
--------------------------------------------------|
--21-21-21-19-19-19-18-18-16-16-16-14-14-14-13-13-|
--------------------------------------------------|
--19-19-19-17-17-17-16-16-14-14-14-12-12-12-11-11-|
--------------------------------------------------|


   PM   PM                                             
   T T  T T  S  S  S  S  S  S  S  S  S  S  S  S  S  S  
------------------------------------------------------|
------------------------------------------------------|
--11---11---11-11-11-11-11-11-11-11-11-11-11-11-11-11-|
------------------------------------------------------|
---9----9----9--9--9--9--9--9--9--9--9--9--9--9--9--9-|
------------------------------------------------------|


   PM   PM                                             
   T T  T T  S  S  S  S  S  S  S  S  S  S  S  S  S  S  
------------------------------------------------------|
------------------------------------------------------|
--13---13---13-13-13-13-13-13-14-14-16-14-14-14-13-13-|
------------------------------------------------------|
--11---11---11-11-11-11-11-11-12-12-14-12-12-12-11-11-|
------------------------------------------------------|


   S  S  S  S  S  S  S  S  S  S  S  S  S  S  S  S  
--------------------------------------------------|
--------------------------------------------------|
--19-19-19-18-18-18-14-14-19-19-19-18-18-18-14-14-|
--------------------------------------------------|
--17-17-17-16-16-16-12-12-17-17-17-16-16-16-12-12-|
--------------------------------------------------|


   S  S  S  S  S  S  S  S  S  S  S  S  S  S  S  S  
--------------------------------------------------|
--------------------------------------------------|
--21-21-21-19-19-19-18-18-16-16-16-14-14-14-13-13-|
--------------------------------------------------|
--19-19-19-17-17-17-16-16-14-14-14-12-12-12-11-11-|
--------------------------------------------------|


      PM   PM   PM   PM   PM           PM   PM   PM   PM   PM    
  S S T  T T  T T  T T  T T  T S S S S T  T T  T T  T T  T T  T  
----------------------------------------------------------------|
----------------------------------------------------------------|
----------------------------------------------------------------|
--0-0-0----0----0----0----0----0---0---0----0----0----0----0----|
--0-0-0----0----0----0----0----0---0---0----0----0----0----0----|
--0-0-0----0----0----0----0----0---0---0----0----0----0----0----|


      PM   PM   PM   PM   PM           PM   PM   PM   PM   PM    
  S S T  T T  T T  T T  T T  T S S S S T  T T  T T  T T  T T  T  
----------------------------------------------------------------|
----------------------------------------------------------------|
----------------------------------------------------------------|
--0-0-0----0----0----0----0----0---0---0----0----0----0----0----|
--0-0-0----0----0----0----0----0---0---0----0----0----0----0----|
--0-0-0----0----0----0----0----0---0---0----0----0----0----0----|


      PM   PM   PM   PM   PM           PM   PM PM PM   PM PM PM    
  S S T  T T  T T  T T  T T  T S S S S T  T T  T  T  T T  T  T  T  
------------------------------------------------------------------|
------------------------------------------------------------------|
------------------------------------------------------------------|
--4-4-4----4----4----4----4----4---4---4----4--4--4----4--4--4----|
--4-4-4----4----4----4----4----4---4---4----4--4--4----4--4--4----|
--4-4-4----4----4----4----4----4---4---4----4--4--4----4--4--4----|


      PM   PM   PM   PM   PM           PM   PM PM PM   PM PM PM    
  S S T  T T  T T  T T  T T  T S S S S T  T T  T  T  T T  T  T  T  
------------------------------------------------------------------|
------------------------------------------------------------------|
------------------------------------------------------------------|
--4-4-4----4----4----4----4----4---4---4----4--4--4----4--4--4----|
--4-4-4----4----4----4----4----4---4---4----4--4--4----4--4--4----|
--4-4-4----4----4----4----4----4---4---4----4--4--4----4--4--4----|


      PM   PM   PM   PM   PM           PM   PM   PM   PM   PM    
  S S T  T T  T T  T T  T T  T S S S S T  T T  T T  T T  T T  T  
----------------------------------------------------------------|
----------------------------------------------------------------|
----------------------------------------------------------------|
--0-0-0----0----0----0----0----0---0---0----0----0----0----0----|
--0-0-0----0----0----0----0----0---0---0----0----0----0----0----|
--0-0-0----0----0----0----0----0---0---0----0----0----0----0----|


      PM   PM   PM   PM   PM           PM   PM   PM   PM   PM    
  S S T  T T  T T  T T  T T  T S S S S T  T T  T T  T T  T T  T  
----------------------------------------------------------------|
----------------------------------------------------------------|
----------------------------------------------------------------|
--0-0-0----0----0----0----0----0---0---0----0----0----0----0----|
--0-0-0----0----0----0----0----0---0---0----0----0----0----0----|
--0-0-0----0----0----0----0----0---0---0----0----0----0----0----|


      PM   PM   PM   PM   PM           PM   PM PM PM   PM PM PM    
  S S T  T T  T T  T T  T T  T S S S S T  T T  T  T  T T  T  T  T  
------------------------------------------------------------------|
------------------------------------------------------------------|
------------------------------------------------------------------|
--4-4-4----4----4----4----4----4---4---4----4--4--4----4--4--4----|
--4-4-4----4----4----4----4----4---4---4----4--4--4----4--4--4----|
--4-4-4----4----4----4----4----4---4---4----4--4--4----4--4--4----|


      PM   PM   PM   PM   PM           PM   PM PM PM   PM PM PM    
  S S T  T T  T T  T T  T T  T S S S S T  T T  T  T  T T  T  T  T  
------------------------------------------------------------------|
------------------------------------------------------------------|
------------------------------------------------------------------|
--4-4-4----4----4----4----4----4---4---4----4--4--4----4--4--4----|
--4-4-4----4----4----4----4----4---4---4----4--4--4----4--4--4----|
--4-4-4----4----4----4----4----4---4---4----4--4--4----4--4--4----|


  S S S S S S  S  S  S  S  S  S  S  S  S  S  
--------------------------------------------|
--------------------------------------------|
--7-7-7-9-9-9-11-11-11-13-13-13-14-14-14-14-|
--------------------------------------------|
--5-5-5-7-7-7--9--9--9-11-11-11-12-12-12-12-|
--------------------------------------------|


  S S S S S S  S  S  S  S  S  S  S  S  S  S  
--------------------------------------------|
--------------------------------------------|
--7-7-7-9-9-9-11-11-11-13-13-13-14-14-14-14-|
--------------------------------------------|
--5-5-5-7-7-7--9--9--9-11-11-11-12-12-12-12-|
--------------------------------------------|


   |--3--|  |--3--|  |--3--|  |--3--|  |--3--|  |--3--|  |--3--|  |--3--|  
   S  S  S  S  S  S  S  S  S  S  S  S  S  S  S  S  S  S  S  S  S  S  S  S  
-----------14----------------------------------14-------------------------|
--15-14-12----15-14-12-14-12-15-14-12-15-14-12----15-14-12-14-12-15-14-12-|
--------------------------------------------------------------------------|
--------------------------------------------------------------------------|
--------------------------------------------------------------------------|
--------------------------------------------------------------------------|


   |--3--|  |--3--|  |--3--|  |--3--|  |--3--|  |--3--|  |--3--|  |--3--|  
   S  S  S  S  S  S  S  S  S  S  S  S  S  S  S  S  S  S  S  S  S  S  S  S  
-----------14----------------------------------14-------------------------|
--15-14-12----15-14-12-14-12-15-14-12-15-14-12----15-14-12-14-12-15-14-12-|
--------------------------------------------------------------------------|
--------------------------------------------------------------------------|
--------------------------------------------------------------------------|
--------------------------------------------------------------------------|


  S S S S S S  S  S  S  S  S  S  S  S  S  S  
--------------------------------------------|
--------------------------------------------|
--7-7-7-9-9-9-11-11-11-13-13-13-14-14-14-14-|
--------------------------------------------|
--5-5-5-7-7-7--9--9--9-11-11-11-12-12-12-12-|
--------------------------------------------|


  S S S S S S  S  S  S  S  S  S  S  S  S  S  
--------------------------------------------|
--------------------------------------------|
--7-7-7-9-9-9-11-11-11-13-13-13-14-14-14-14-|
--------------------------------------------|
--5-5-5-7-7-7--9--9--9-11-11-11-12-12-12-12-|
--------------------------------------------|


   |--3--|  |--3--|  |--3--|  |--3--|  |--3--|  |--3--|  |--3--|  |--3--|  
   S  S  S  S  S  S  S  S  S  S  S  S  S  S  S  S  S  S  S  S  S  S  S  S  
-----------14----------------------------------14-------------------------|
--15-14-12----15-14-12-14-12-15-14-12-15-14-12----15-14-12-14-12-15-14-12-|
--------------------------------------------------------------------------|
--------------------------------------------------------------------------|
--------------------------------------------------------------------------|
--------------------------------------------------------------------------|


   |--3--|  |--3--|  |--3--|  |--3--|  |--3--|  |--3--|  |--3--|  |--3--|  
   S  S  S  S  S  S  S  S  S  S  S  S  S  S  S  S  S  S  S  S  S  S  S  S  
-----------14----------------------------------14-------------------------|
--15-14-12----15-14-12-14-12-15-14-12-15-14-12----15-14-12-14-12-15-14-12-|
--------------------------------------------------------------------------|
--------------------------------------------------------------------------|
--------------------------------------------------------------------------|
--------------------------------------------------------------------------|


   |--3--|  |--3--|  |--3--|  |--3--|  |--3--|  |--3--|  |--3--|  |--3--|  
   S  S  S  S  S  S  S  S  S  S  S  S  S  S  S  S  S  S  S  S  S  S  S  S  
-----------14----------------------------------14-------------------------|
--15-14-12----15-14-12-14-12-15-14-12-15-14-12----15-14-12-14-12-15-14-12-|
--------------------------------------------------------------------------|
--------------------------------------------------------------------------|
--------------------------------------------------------------------------|
--------------------------------------------------------------------------|


   |--3--|  |--3--|  |--3--|  |--3--|  |--3--|  |--3--|  |--3--|  |--3--|  
   S  S  S  S  S  S  S  S  S  S  S  S  S  S  S  S  S  S  S  S  S  S  S  S  
-----------14----------------------------------14-------------------------|
--15-14-12----15-14-12-14-12-15-14-12-15-14-12----15-14-12-14-12-15-14-12-|
--------------------------------------------------------------------------|
--------------------------------------------------------------------------|
--------------------------------------------------------------------------|
--------------------------------------------------------------------------|


  E.  S E  Q.     Q       E.  S E  Q.     Q       E.  S E  Q.     Q     
-----------------------|-----------------------|-----------------------|
-----------------------|-----------------------|-----------------------|
-----------------------|-----------------------|-----------------------|
--4---4----4------4----|--7---7----7------7----|--2---2----2------2----|
--4---4----4------4----|--7---7----7------7----|--2---2----2------2----|
--4---4----4------4----|--7---7----7------7----|--2---2----2------2----|


                                PH                          
  S S S S S S S S S S S S S S   E     E.  S E  Q.     Q     
-----------------------------------|-----------------------|
-----------------------------------|-----------------------|
-----------------------------------|-----------------------|
------------------0-----------<>2--|--4---4----4------4----|
------0----------------------------|--4---4----4------4----|
--0-4---0---0-4-0---0---0-4-0------|--4---4----4------4----|


  E.  S E  Q.     Q       E.  S E  Q.     Q     
-----------------------|-----------------------|
-----------------------|-----------------------|
-----------------------|-----------------------|
--7---7----7------7----|--2---2----2------2----|
--7---7----7------7----|--2---2----2------2----|
--7---7----7------7----|--2---2----2------2----|


                                PH                                          
  S S S S S S S S S S S S S S   E     W                   W                 
-----------------------------------|-------------------|-------------------|
-----------------------------------|-------------------|-------------------|
-----------------------------------|-------------------|-------------------|
------------------0-----------<>2--|--4----------------|--L----------------|
------0----------------------------|--4----------------|--L----------------|
--0-4---0---0-4-0---0---0-4-0------|--4----------------|--L----------------|


  W                   W                 
-------------------|-------------------|
-------------------|-------------------|
-------------------|-------------------|
--4----------------|--L----------------|
--4----------------|--L----------------|
--4----------------|--L----------------|


   S  S  S  S  S  S  S  S  S  S  S  S  S  S  S  S  
--------------------------------------------------|
--------------------------------------------------|
--11-11-11-11-11-11-11-11-11-11-11-11-11-11-11-11-|
--------------------------------------------------|
---9--9--9--9--9--9--9--9--9--9--9--9--9--9--9--9-|
--------------------------------------------------|


   S  S  S  S  S  S  S  S  S  S  S  S  S  S  S  S  
--------------------------------------------------|
--------------------------------------------------|
--13-13-13-13-13-13-13-13-14-14-16-14-14-14-13-13-|
--------------------------------------------------|
--11-11-11-11-11-11-11-11-12-12-14-12-12-12-11-11-|
--------------------------------------------------|


   S  S  S  S  S  S  S  S  S  S  S  S  S  S  S  S  
--------------------------------------------------|
--------------------------------------------------|
--19-19-19-18-18-18-14-14-19-19-19-18-18-18-14-14-|
--------------------------------------------------|
--17-17-17-16-16-16-12-12-17-17-17-16-16-16-12-12-|
--------------------------------------------------|


   S  S  S  S  S  S  S  S  S  S  S  S  S  S  S  S  
--------------------------------------------------|
--------------------------------------------------|
--21-21-21-19-19-19-18-18-16-16-16-14-14-14-13-13-|
--------------------------------------------------|
--19-19-19-17-17-17-16-16-14-14-14-12-12-12-11-11-|
--------------------------------------------------|


   PM   PM                                             
   T T  T T  S  S  S  S  S  S  S  S  S  S  S  S  S  S  
------------------------------------------------------|
------------------------------------------------------|
--11---11---11-11-11-11-11-11-11-11-11-11-11-11-11-11-|
------------------------------------------------------|
---9----9----9--9--9--9--9--9--9--9--9--9--9--9--9--9-|
------------------------------------------------------|


   PM   PM                                             
   T T  T T  S  S  S  S  S  S  S  S  S  S  S  S  S  S  
------------------------------------------------------|
------------------------------------------------------|
--13---13---13-13-13-13-13-13-14-14-16-14-14-14-13-13-|
------------------------------------------------------|
--11---11---11-11-11-11-11-11-12-12-14-12-12-12-11-11-|
------------------------------------------------------|


   S  S  S  S  S  S  S  S  S  S  S  S  S  S  S  S  
--------------------------------------------------|
--------------------------------------------------|
--19-19-19-18-18-18-14-14-19-19-19-18-18-18-14-14-|
--------------------------------------------------|
--17-17-17-16-16-16-12-12-17-17-17-16-16-16-12-12-|
--------------------------------------------------|


   S  S  S  S  S  S  S  S  S  S  S  S  S  S  S  S    Q    H        E  T T T T  
--------------------------------------------------|---------------------------|
--------------------------------------------------|---------------------------|
--21-21-21-19-19-19-18-18-16-16-16-14-14-14-13-13-|---------------------------|
--------------------------------------------------|--4----L--------L--4---4---|
--19-19-19-17-17-17-16-16-14-14-14-12-12-12-11-11-|--4----L--------L--4---4---|
--------------------------------------------------|--4----L--------L--4---4---|


-------------------|-------------------|-------------------|-------------------|
-------------------|-------------------|-------------------|-------------------|
-------------------|-------------------|-------------------|-------------------|
-------------------|-------------------|-------------------|-------------------|
-------------------|-------------------|-------------------|-------------------|
-------------------|-------------------|-------------------|-------------------|


-------------------|-------------------|-------------------|-------------------|
-------------------|-------------------|-------------------|-------------------|
-------------------|-------------------|-------------------|-------------------|
-------------------|-------------------|-------------------|-------------------|
-------------------|-------------------|-------------------|-------------------|
-------------------|-------------------|-------------------|-------------------|


-------------------|-------------------|-------------------|
-------------------|-------------------|-------------------|
-------------------|-------------------|-------------------|
-------------------|-------------------|-------------------|
-------------------|-------------------|-------------------|
-------------------|-------------------|-------------------|


                                PH                          
  S S S S S S S S S S S S S S   E     E.  S E  Q.     Q     
-----------------------------------|-----------------------|
-----------------------------------|-----------------------|
-----------------------------------|-----------------------|
------------------0-----------<>2--|--4---4----4------4----|
------0----------------------------|--4---4----4------4----|
--0-4---0---0-4-0---0---0-4-0------|--4---4----4------4----|


  E.  S E  Q.     Q       E.  S E  Q.     Q     
-----------------------|-----------------------|
-----------------------|-----------------------|
-----------------------|-----------------------|
--7---7----7------7----|--2---2----2------2----|
--7---7----7------7----|--2---2----2------2----|
--7---7----7------7----|--2---2----2------2----|


                                PH                          
  S S S S S S S S S S S S S S   E     E.  S E  Q.     Q     
-----------------------------------|-----------------------|
-----------------------------------|-----------------------|
-----------------------------------|-----------------------|
------------------0-----------<>2--|--4---4----4------4----|
------0----------------------------|--4---4----4------4----|
--0-4---0---0-4-0---0---0-4-0------|--4---4----4------4----|


  E.  S E  Q.     Q       E.  S E  Q.     Q     
-----------------------|-----------------------|
-----------------------|-----------------------|
-----------------------|-----------------------|
--7---7----7------7----|--2---2----2------2----|
--7---7----7------7----|--2---2----2------2----|
--7---7----7------7----|--2---2----2------2----|


                                PH                                           
  S S S S S S S S S S S S S S   E     W                   W                  
-----------------------------------|-------------------|-------------------||
-----------------------------------|-------------------|-------------------||
-----------------------------------|-------------------|-------------------||
------------------0-----------<>2--|--4----------------|--L----------------||
------0----------------------------|--4----------------|--L----------------||
--0-4---0---0-4-0---0---0-4-0------|--4----------------|--L----------------||




                                Milligram Smile                                 


                                                            From Autumn To Ashes
Guitar 2
E-A-D-G-B-E


     S S S S S S S S S S S S S S S S    S S S S S S S S S S S S S S S S  
D||----------------------------------|----------------------------------|
A||----------------------------------|----------------------------------|
F||----------------------------------|----------------------------------|
C||--4-4-4-4-4-4-4-4-4-4-4-4-4-x-x-x-|--2-2-2-2-2-2-2-2-2-2-2-2-2-x-x-x-|
G||--4-4-4-4-4-4-4-4-4-4-4-4-4-x-x-x-|--2-2-2-2-2-2-2-2-2-2-2-2-2-x-x-x-|
C||--4-4-4-4-4-4-4-4-4-4-4-4-4-x-x-x-|--2-2-2-2-2-2-2-2-2-2-2-2-2-x-x-x-|


  S S S S S S S S S S S S S S S S  
----------------------------------|
----------------------------------|
----------------------------------|
--0-0-0-0-0-0-0-0-0-0-0-0-0-x-x-x-|
--0-0-0-0-0-0-0-0-0-0-0-0-0-x-x-x-|
--0-0-0-0-0-0-0-0-0-0-0-0-0-x-x-x-|


    PM   PM     PM   PM     PM   PM     PM   PM            
  S T  T T  T S T  T T  T S T  T T  T S T  T T  T S S S S  
----------------------------------------------------------|
----------------------------------------------------------|
----------------------------------------------------------|
--2-2----2----2-2----2----2-2----2----2-2----2----2-2-2-2-|
--2-2----2----2-2----2----2-2----2----2-2----2----2-2-2-2-|
--2-2----2----2-2----2----2-2----2----2-2----2----2-2-2-2-|


  S S S S S S S S S S S S S S S S    S S S S S S S S S S S S S S S S  
----------------------------------|----------------------------------|
----------------------------------|----------------------------------|
----------------------------------|----------------------------------|
--4-4-4-4-4-4-4-4-4-4-4-4-4-4-4-4-|--2-2-2-2-2-2-2-2-2-2-2-2-2-2-2-2-|
--4-4-4-4-4-4-4-4-4-4-4-4-4-4-4-4-|--2-2-2-2-2-2-2-2-2-2-2-2-2-2-2-2-|
--4-4-4-4-4-4-4-4-4-4-4-4-4-4-4-4-|--2-2-2-2-2-2-2-2-2-2-2-2-2-2-2-2-|


  S S S S S S S S S S S S S S S S    S S S S S S S S S S S S S S S S  
----------------------------------|----------------------------------|
----------------------------------|----------------------------------|
----------------------------------|----------------------------------|
--0-0-0-0-0-0-0-0-0-0-0-0-0-0-0-0-|--2-2-2-2-2-2-2-2-2-2-2-2-2-2-2-2-|
--0-0-0-0-0-0-0-0-0-0-0-0-0-0-0-0-|--2-2-2-2-2-2-2-2-2-2-2-2-2-2-2-2-|
--0-0-0-0-0-0-0-0-0-0-0-0-0-0-0-0-|--2-2-2-2-2-2-2-2-2-2-2-2-2-2-2-2-|


  PM   PM                                
  T  T T  T S S S S S S S S S S S S S S  
----------------------------------------|
----------------------------------------|
----------------------------------------|
--4----4----4-4-4-4-4-4-4-4-4-4-4-4-4-4-|
--4----4----4-4-4-4-4-4-4-4-4-4-4-4-4-4-|
--4----4----4-4-4-4-4-4-4-4-4-4-4-4-4-4-|


  PM   PM                                
  T  T T  T S S S S S S S S S S S S S S  
----------------------------------------|
----------------------------------------|
----------------------------------------|
--2----2----2-2-2-2-2-2-2-2-2-2-2-2-2-2-|
--2----2----2-2-2-2-2-2-2-2-2-2-2-2-2-2-|
--2----2----2-2-2-2-2-2-2-2-2-2-2-2-2-2-|


  PM   PM                                
  T  T T  T S S S S S S S S S S S S S S  
----------------------------------------|
----------------------------------------|
----------------------------------------|
--0----0----0-0-0-0-0-0-0-0-0-0-0-0-0-0-|
--0----0----0-0-0-0-0-0-0-0-0-0-0-0-0-0-|
--0----0----0-0-0-0-0-0-0-0-0-0-0-0-0-0-|


  PM   PM                                                           
  T  T T  T S S S S S S S S S S S S S S    S S Q    S S S S Q.      
----------------------------------------|--------------------------|
----------------------------------------|--------------------------|
----------------------------------------|--------------------------|
--2----2----2-2-2-2-2-2-2-2-2-2-2-2-2-2-|--0-0--------0---0--------|
--2----2----2-2-2-2-2-2-2-2-2-2-2-2-2-2-|--0-0--------0---0--------|
--2----2----2-2-2-2-2-2-2-2-2-2-2-2-2-2-|--0-0--------0---0--------|


  S S Q    S S S S Q.        S S Q    S S S S Q.      
--------------------------|--------------------------|
--------------------------|--------------------------|
--------------------------|--------------------------|
--0-0--------0---0--------|--4-4--------4---4--------|
--0-0--------0---0--------|--4-4--------4---4--------|
--0-0--------0---0--------|--4-4--------4---4--------|


  S S Q    S S S S Q.        S S Q    S S S S Q.      
--------------------------|--------------------------|
--------------------------|--------------------------|
--------------------------|--------------------------|
--4-4--------4---4--------|--0-0--------0---0--------|
--4-4--------4---4--------|--0-0--------0---0--------|
--4-4--------4---4--------|--0-0--------0---0--------|


  S S Q    S S S S Q.        S S Q    S S S S Q.      
--------------------------|--------------------------|
--------------------------|--------------------------|
--------------------------|--------------------------|
--0-0--------0---0--------|--4-4--------4---4--------|
--0-0--------0---0--------|--4-4--------4---4--------|
--0-0--------0---0--------|--4-4--------4---4--------|


  S S Q    S S S S S Q    S    S S S S S S S S S S S S S S S S  
----------------------------|----------------------------------|
----------------------------|----------------------------------|
----------------------------|----------------------------------|
--4-4--------4---4----------|--0-0-0-0-0-0-0-0-0-0-0-0-0-0-0-0-|
--4-4--------4---4----------|--0-0-0-0-0-0-0-0-0-0-0-0-0-0-0-0-|
--4-4--------4---4----------|--0-0-0-0-0-0-0-0-0-0-0-0-0-0-0-0-|


  S S S S S S S S S S S S S S S S  
----------------------------------|
----------------------------------|
----------------------------------|
--0-0-0-0-0-0-0-0-0-0-0-0-0-0-0-0-|
--0-0-0-0-0-0-0-0-0-0-0-0-0-0-0-0-|
--0-0-0-0-0-0-0-0-0-0-0-0-0-0-0-0-|


  PM PM PM PM PM PM PM PM PM       PM PM PM PM PM       PM PM PM PM PM PM PM PM 
  T  T  T  T  T  T  T  T  T  T T T T  T  T  T  T  T T T T  T  T  T  T  T  T  T  
--------------------------------------------------------------------------------
--------------------------------------------------------------------------------
--------------------------------------------------------------------------------
--4--4--4--4--4--4--4--4--4--------4--4--4--4--4--------4--4--4--4--4--4--4--4--
--4--4--4--4--4--4--4--4--4--------4--4--4--4--4--------4--4--4--4--4--4--4--4--
--4--4--4--4--4--4--4--4--4--------4--4--4--4--4--------4--4--4--4--4--4--4--4--


  PM PM PM PM PM PM PM PM PM       PM PM PM PM PM       PM PM PM PM PM PM PM PM 
  T  T  T  T  T  T  T  T  T  T T T T  T  T  T  T  T T T T  T  T  T  T  T  T  T  
--------------------------------------------------------------------------------
--------------------------------------------------------------------------------
--------------------------------------------------------------------------------
--4--4--4--4--4--4--4--4--4--------4--4--4--4--4--------4--4--4--4--4--4--4--4--
--4--4--4--4--4--4--4--4--4--------4--4--4--4--4--------4--4--4--4--4--4--4--4--
--4--4--4--4--4--4--4--4--4--------4--4--4--4--4--------4--4--4--4--4--4--4--4--


  S S S S S S S S S S S S S S S S    S S S S S S S S S S S S S S S S  
----------------------------------|----------------------------------|
----------------------------------|----------------------------------|
----------------------------------|----------------------------------|
--0-0-0-0-0-0-0-0-0-0-0-0-0-0-0-0-|--0-0-0-0-0-0-0-0-0-0-0-0-0-0-0-0-|
--0-0-0-0-0-0-0-0-0-0-0-0-0-0-0-0-|--0-0-0-0-0-0-0-0-0-0-0-0-0-0-0-0-|
--0-0-0-0-0-0-0-0-0-0-0-0-0-0-0-0-|--0-0-0-0-0-0-0-0-0-0-0-0-0-0-0-0-|


  PM PM PM PM PM PM PM PM PM       PM PM PM PM PM       PM PM PM PM PM PM PM PM 
  T  T  T  T  T  T  T  T  T  T T T T  T  T  T  T  T T T T  T  T  T  T  T  T  T  
--------------------------------------------------------------------------------
--------------------------------------------------------------------------------
--------------------------------------------------------------------------------
--4--4--4--4--4--4--4--4--4--------4--4--4--4--4--------4--4--4--4--4--4--4--4--
--4--4--4--4--4--4--4--4--4--------4--4--4--4--4--------4--4--4--4--4--4--4--4--
--4--4--4--4--4--4--4--4--4--------4--4--4--4--4--------4--4--4--4--4--4--4--4--


  PM PM PM PM PM PM PM PM PM       PM PM PM PM PM       PM PM PM PM PM PM PM PM 
  T  T  T  T  T  T  T  T  T  T T T T  T  T  T  T  T T T T  T  T  T  T  T  T  T  
--------------------------------------------------------------------------------
--------------------------------------------------------------------------------
--------------------------------------------------------------------------------
--4--4--4--4--4--4--4--4--4--------4--4--4--4--4--------4--4--4--4--4--4--4--4--
--4--4--4--4--4--4--4--4--4--------4--4--4--4--4--------4--4--4--4--4--4--4--4--
--4--4--4--4--4--4--4--4--4--------4--4--4--4--4--------4--4--4--4--4--4--4--4--


  H        H           W                   E.  S E  Q.     Q     
--------------------|-------------------|-----------------------|
--------------------|-------------------|-----------------------|
--------------------|-------------------|-----------------------|
--4--------4--------|--7----------------|--4---4----4------4----|
--4--------4--------|--7----------------|--4---4----4------4----|
--4--------4--------|--7----------------|--4---4----4------4----|


  E.  S E  Q.     Q       E.  S E  Q.     Q     
-----------------------|-----------------------|
-----------------------|-----------------------|
-----------------------|-----------------------|
--7---7----7------7----|--2---2----2------2----|
--7---7----7------7----|--2---2----2------2----|
--7---7----7------7----|--2---2----2------2----|


  S S S S E  S S S S E  S S S S    E.  S E  Q.     Q     
--------------------------------|-----------------------|
--------------------------------|-----------------------|
--------------------------------|-----------------------|
--0-0-0-0----0-0-0-0----0-0-0-0-|--4---4----4------4----|
--0-0-0-0----0-0-0-0----0-0-0-0-|--4---4----4------4----|
--0-0-0-0----0-0-0-0----0-0-0-0-|--4---4----4------4----|


  E.  S E  Q.     Q       E.  S E  Q.     Q     
-----------------------|-----------------------|
-----------------------|-----------------------|
-----------------------|-----------------------|
--7---7----7------7----|--2---2----2------2----|
--7---7----7------7----|--2---2----2------2----|
--7---7----7------7----|--2---2----2------2----|


  S S S S E  S S S S E  S S S S    W                   W                 
--------------------------------|-------------------|-------------------|
--------------------------------|-------------------|-------------------|
--------------------------------|-------------------|-------------------|
--0-0-0-0----0-0-0-0----0-0-0-0-|--4----------------|--L----------------|
--0-0-0-0----0-0-0-0----0-0-0-0-|--4----------------|--L----------------|
--0-0-0-0----0-0-0-0----0-0-0-0-|--4----------------|--L----------------|


  W                   W                   S S S S S S S S S S S S S S S S  
-------------------|-------------------|----------------------------------|
-------------------|-------------------|----------------------------------|
-------------------|-------------------|----------------------------------|
--4----------------|--L----------------|--4-4-4-4-4-4-4-4-4-4-4-4-4-4-4-4-|
--4----------------|--L----------------|--4-4-4-4-4-4-4-4-4-4-4-4-4-4-4-4-|
--4----------------|--L----------------|--4-4-4-4-4-4-4-4-4-4-4-4-4-4-4-4-|


  S S S S S S S S S S S S S S S S    S S S S S S S S S S S S S S S S  
----------------------------------|----------------------------------|
----------------------------------|----------------------------------|
----------------------------------|----------------------------------|
--2-2-2-2-2-2-2-2-2-2-2-2-2-2-2-2-|--0-0-0-0-0-0-0-0-0-0-0-0-0-0-0-0-|
--2-2-2-2-2-2-2-2-2-2-2-2-2-2-2-2-|--0-0-0-0-0-0-0-0-0-0-0-0-0-0-0-0-|
--2-2-2-2-2-2-2-2-2-2-2-2-2-2-2-2-|--0-0-0-0-0-0-0-0-0-0-0-0-0-0-0-0-|


                                     PM   PM                                
  S S S S S S S S S S S S S S S S    T  T T  T S S S S S S S S S S S S S S  
----------------------------------|----------------------------------------|
----------------------------------|----------------------------------------|
----------------------------------|----------------------------------------|
--2-2-2-2-2-2-2-2-2-2-2-2-2-2-2-2-|--4----4----4-4-4-4-4-4-4-4-4-4-4-4-4-4-|
--2-2-2-2-2-2-2-2-2-2-2-2-2-2-2-2-|--4----4----4-4-4-4-4-4-4-4-4-4-4-4-4-4-|
--2-2-2-2-2-2-2-2-2-2-2-2-2-2-2-2-|--4----4----4-4-4-4-4-4-4-4-4-4-4-4-4-4-|


  PM   PM                                
  T  T T  T S S S S S S S S S S S S S S  
----------------------------------------|
----------------------------------------|
----------------------------------------|
--2----2----2-2-2-2-2-2-2-2-2-2-2-2-2-2-|
--2----2----2-2-2-2-2-2-2-2-2-2-2-2-2-2-|
--2----2----2-2-2-2-2-2-2-2-2-2-2-2-2-2-|


  PM   PM                                
  T  T T  T S S S S S S S S S S S S S S  
----------------------------------------|
----------------------------------------|
----------------------------------------|
--0----0----0-0-0-0-0-0-0-0-0-0-0-0-0-0-|
--0----0----0-0-0-0-0-0-0-0-0-0-0-0-0-0-|
--0----0----0-0-0-0-0-0-0-0-0-0-0-0-0-0-|


                                           Tempo Change                      
  PM   PM                                                                    
  T  T T  T S S S S S S S S S S S S S S    Q            H        E  T T T T  
----------------------------------------|-----------------------------------|
----------------------------------------|-----------------------------------|
----------------------------------------|-----------------------------------|
--2----2----2-2-2-2-2-2-2-2-2-2-2-2-2-2-|--4------------L--------L--4---4---|
--2----2----2-2-2-2-2-2-2-2-2-2-2-2-2-2-|--4------------L--------L--4---4---|
--2----2----2-2-2-2-2-2-2-2-2-2-2-2-2-2-|--4------------L--------L--4---4---|


  E.  S E  Q    E  E  S S    E.  S E  Q    E  E  S S  
-----------5----5-----5-5-|-----------5----5-----5-5-|
--5---5----5-------5--5-5-|--5---5----5-------5--5-5-|
--6---6----6----------6-6-|--6---6----6----------6-6-|
--4---4----4--------------|--7---7----7--------------|
--4---4----4--------------|--7---7----7--------------|
--------------------------|--------------------------|


  E.  S E  Q    E  S S S S    E  E  E  E  E  E  E  E   
--4---4----5----5--5-4-0---|--------------------------|
--0---0----0-------------2-|--------------------------|
--1---1----1---------------|--------7-----------7-----|
--2---2----2---------------|-----4-----4-----4-----4--|
---------------------------|--5-----------5-----------|
---------------------------|--------------------------|


  E.  S E  Q    E  E  S S    E.  S E  Q    E  E  S S  
-----------5----5-----5-5-|-----------5----5-----5-5-|
--5---5----5-------5--5-5-|--5---5----5-------5--5-5-|
--6---6----6----------6-6-|--6---6----6----------6-6-|
--4---4----4--------------|--7---7----7--------------|
--4---4----4--------------|--7---7----7--------------|
--------------------------|--------------------------|


  E.  S E  Q    E  S S S S    E  E  E  E  E  E  E  E   
--4---4----5----5--5-4-0---|--------------------------|
--0---0----0-------------2-|--------------------------|
--1---1----1---------------|--------7-----------7-----|
--2---2----2---------------|-----4-----4-----4-----4--|
---------------------------|--5-----------5-----------|
---------------------------|--------------------------|


  E.  S E  Q    E  E  S S    E.  S E  Q    E  E  S S  
-----------5----5-----5-5-|-----------5----5-----5-5-|
--5---5----5-------5--5-5-|--5---5----5-------5--5-5-|
--6---6----6----------6-6-|--6---6----6----------6-6-|
--4---4----4--------------|--7---7----7--------------|
--4---4----4--------------|--7---7----7--------------|
--------------------------|--------------------------|


  E.  S E  Q    E  S S S S    E  E  E  E  E  E  E  E     E.  S E  Q.     Q     
--4---4----5----5--5-4-0---|--------------------------|-----------------------|
--0---0----0-------------2-|--------------------------|-----------------------|
--1---1----1---------------|--------7-----------7-----|-----------------------|
--2---2----2---------------|-----4-----4-----4-----4--|--4---4----4------4----|
---------------------------|--5-----------5-----------|--4---4----4------4----|
---------------------------|--------------------------|--4---4----4------4----|


  E.  S E  Q.     Q       E.  S E  Q.     Q     
-----------------------|-----------------------|
-----------------------|-----------------------|
-----------------------|-----------------------|
--7---7----7------7----|--2---2----2------2----|
--7---7----7------7----|--2---2----2------2----|
--7---7----7------7----|--2---2----2------2----|


  S S S S E  S S S S E  S S S S    E.  S E  Q.     Q     
--------------------------------|-----------------------|
--------------------------------|-----------------------|
--------------------------------|-----------------------|
--0-0-0-0----0-0-0-0----0-0-0-0-|--4---4----4------4----|
--0-0-0-0----0-0-0-0----0-0-0-0-|--4---4----4------4----|
--0-0-0-0----0-0-0-0----0-0-0-0-|--4---4----4------4----|


  E.  S E  Q.     Q       E.  S E  Q.     Q     
-----------------------|-----------------------|
-----------------------|-----------------------|
-----------------------|-----------------------|
--7---7----7------7----|--2---2----2------2----|
--7---7----7------7----|--2---2----2------2----|
--7---7----7------7----|--2---2----2------2----|


  S S S S E  S S S S E  S S S S    W                   W                  
--------------------------------|-------------------|-------------------||
--------------------------------|-------------------|-------------------||
--------------------------------|-------------------|-------------------||
--0-0-0-0----0-0-0-0----0-0-0-0-|--4----------------|--L----------------||
--0-0-0-0----0-0-0-0----0-0-0-0-|--4----------------|--L----------------||
--0-0-0-0----0-0-0-0----0-0-0-0-|--4----------------|--L----------------||




Duration Legend
---------------
W - whole
H - half
Q - quarter
E - 8th
S - 16th
T - 32nd
X - 64th
. - note dotted
|-n-|  - n-tuplets


Tablature Legend
----------------
L - tied note
x - dead note
g - grace note
(n) - ghost note
> - accentuded note
NH - natural harmonic
AH - artificial harmonic
TH - tapped harmonic
SH - semi harmonic
PH - pitch harmonic
h - hammer on
p - pull off
b - bend
br - bendRelease
pb - preBend
pbr - preBendRelease
brb - bendReleaseBend
\n/ - tremolo bar dip
\n - tremolo bar dive
-/n - tremolo bar Release up
/n\ - tremolo bar inverted dip
/n - tremolo bar return
-\n - tremolo bar Release down
S - shift slide
s - legato slide
/ -  slide into from below or out of upwards
\ -  slide into from above or out of downwards
~ - vibrato
W - wide vibrato
tr - trill
TP - tremolo picking
T - tapping
S - slap
P - pop
< - fade in
^ - brush up
v - brush down

Tap to rate this tab
# A B C D E F G H I J K L M N O P Q R S T U V W X Y Z