Song name
# A B C D E F G H I J K L M N O P Q R S T U V W X Y Z

From Autumn To Ashes - The After Dinner Payback tab

Standard Tuning

Made for One Guitar

[intro]-[2X]
|----2-3--3--3-2-0----2-3---2---3-2-0------------------------------|
|---0----0--0--------0-----0---0-----------------------------------|
|------------------------------------------------------------------|
|--2---------------------------------------------------------------|
|--2---------------------------------------------------------------|
|--0---------------------------------------------------------------|

[verse] [part 1]-[1X]
|------------------------------------------------------------------|
|------------------------------------------------------------------|
|--------------------------------5-5--5-5-555555-5-5--5-5-555555---|
|2-2--2-2--------2-2--2-2--------5-5--5-5-555555-5-5--5-5-555555---|
|2-2--2-2-222222-2-2--2-2-222222-3-3--3-3-333333-3-3--3-3-333333---|
|0-0--0-0-000000-0-0--0-0-000000-----------------------------------|
p.m.      ******          ******          ******          ******

[verse] [part 2]-[1X]
|------------------------------------------------------------------|
|---7-8--7---8-7----7-8---7--8-7----3-5--3--5-3---3-5--3--5-3------|
|----------------9---------------9--------------5------------5-----|
|-9-----9---9------9----9---9------5---5---5-----5---5--5----------|
|------------------------------------------------------------------|
|------------------------------------------------------------------|

[verse] [part 3]-[1X]
|---------------------------------|
|---------------------------------|
|---------------------------------|
|2-2--2-2--------2-2--2-2---------|
|2-2--2-2-222222-2-2--2-2-222222--|
|0-0--0-0-000000-0-0--0-0-000000--|
p.m.      ******          ******


[pre-chorus] 
|------------------------------------------------------------------|
|------------------------------------------------------------------|
|------------------------------------------------------------------|
|------------------------------------------------------------------|
|--12-10-9-7-9-10-7-9-10-7-12-10-9-7-9-10-7-9-10-7-----------------|
|------------------------------------------------------------------|

|------------------------------------------------------------------|
|------------------------------------------------------------------|
|------------------------------------------------------------------|
|------------------------------------------------------------------|
|--12-10-9-7-9-10-7-9-10-7-12-10-9-7-9-10-7-9----------------------|
|------------------------------------------------------------------|

[chorus] [part 1]-[3X]
|------------------------------------------------------------------|
|------------------------------------------------------------------|
|------------------------------------------------------------------|
|-12-10-9-----12-10-9-7--12-10-9-10-9------------------------------|
|---------10--------------------------10-10-10-10-10-10-10-10------|
|------------------------------------------------------------------|

[chorus] [part 2]-[1X]
|------------------------------------------------------------------|
|------------------------------------------------------------------|
|------------------------------------------------------------------|
|-12-10-9-----12-10-9-7--12-10-9-10-9------------------------------|
|---------10-------------------------------------------------------|
|------------------------------------------------------------------|

[chorus] [part 3]-[2X]
|----------------------------------------------------------------------------|
|----------------------------------------------------------------------------|
|------------[       ]----------[       ]-[        ]-------------------------|
|----------9-[4 times]--------9-[4 times]-[2nd time]-------------------------|
|-9h10p9h10--[       ]-7h9p7h9--[       ]-[        ]-10-10-10-10-10-10-10-10-|
|----------------------------------------------------------------------------|

[breakdown] [extremely slow]
|------------------------------------------------------------------|
|------------------------------------------------------------------|
|--------------------------------5-5--5-5-555555-5-5--5-5-555555---|
|2-2--2-2--------2-2--2-2--------5-5--5-5-555555-5-5--5-5-555555---|
|2-2--2-2-222222-2-2--2-2-222222-3-3--3-3-333333-3-3--3-3-333333---|
|0-0--0-0-000000-0-0--0-0-000000-----------------------------------|
p.m.      ******          ******          ******          ******

[outro]
|------------------------------------------------------------------|
|------------------------------------------------------------------|
|------------------------------------------------------------------|
|------------------------------------------------------------------|
|--12-10-9-7-9-10-7-9-10-7-12-10-9-7-9-10-7-9-10-7-----------------|
|------------------------------------------------------------------|

|------------------------------------------------------------------|
|------------------------------------------------------------------|
|------------------------------------------------------------------|
|---------------------------------------------2-2--2-2-------------|
|--12-10-9-7-9-10-7-9-10-7-12-10-9-7-9-10-7---2-2--2-2-------------|
|---------------------------------------------0-0--0-0-------------|

[ORDER]
intro
verse [part 1-3]
pre-chorus
chorus [part 1-3]
chorus [part 1-2]
intro
verse [part 1-2]
breakdown
outro



Tabbed By: Austin Krohn--austinkrohn@hotmail.com
Tap to rate this tab
 
# A B C D E F G H I J K L M N O P Q R S T U V W X Y Z