Song name
# A B C D E F G H I J K L M N O P Q R S T U V W X Y Z

From Autumn To Ashes - Royal Crown-vs-blue Duchess tab

                   -------------------------
   From Autumn to Ashes - The Royal Crown -Vs. Blue Duchess
                   -------------------------

E-mail: failurefall@hotmail.com
Comment(s): It's not perfect, and some there are probably a few notes missing that I 
hear, but, it's all the basics to the song. Hardcore song, hardcore band.

Tuning: Standard - eADGBe

Slide: / or \
Palm mute: x
Fast Palm Mute: .
Harmonic: []
Pinch: *
Bend: ^
Hold note: [h]
Pause Note: [p]


[0:00 - 0:05]

[clean]          [distortion w/ both guitars]
e--------------------------------------------| [x2]
b--------------------------------------------|
g-9-9-9-9-9-9-9-9----------------------------|
d-x-x-x-x-x-x-x-x----------------------------|
a-7-7-7-7-7-7-7-7----------------------------|
e-----------------0-0-0-0-0-0-0-0-0-0-0-0----|
                  . . . . . . . . . . . .

[0:06 - 0:08]

[distortion w/ both guitars]
e-------------------------------------|[2x]
b-------------------------------------|
g-9-9-9-9-----------------------------|
d-x-x-x-x-----------------------------|
a-7-7-7-7-----------------------------|
e---------0-0-0-0-0-0-0-0-0-0-0-0-----|
          . . . . . . . . . . . .

[0:09 - 0:10]

 [h]         [h]       [p]
e--------------------------------------|
b--------------------------------------|
g-9--9-------12--12-----5--5-----------|
d-x--x--x-x---x---x--x--x--x-----------|
a-7--7--x-x--10--10--x--3--3-----------|
e-------x-x----------x-----------------|

[0:11 - 0:13]

e--------------------------------------|
b--------------------------------------|
g-9-9-9-9------------------------------|
d-x-x-x-x------------------------------|
a-7-7-7-7------------------------------|
e---------0-0-0-0-0-0-0-0-0-0-0-0------|
          . . . . . . . . . . . .


[0:14 - 0:18]

 [h]         [h]       [p][p]
e--------------------------------------|
b--------------------------------------|
g-9--9-------12--12-----5--5--5--------|
d-x--x--x-x---x---x--x--x--x--x--------|
a-7--7--x-x--10--10--x--3--3--3--------|
e-------x-x----------x-----------------|
                              .

[0:19 - 0:24]

                                   [h]       [h]        [p][p][h]
e-----------------------------------------------------------------|
b-----------------------------------------------------------------|
g-9-9-9-9-9-9-9-9-9-9-9-9-9-9-9-9---9--9------12--12-----5--5--5--|
d-x-x-x-x-x-x-x-x-x-x-x-x-x-x-x-x---x--x--x-x--x---x--x--x--x--x--|
a-7-7-7-7-7-7-7-7-7-7-7-7-7-7-7-7---7--7--x-x-10--10--x--3--3--3--|
e-----------------------------------------x-x---------x-----------|

[0:25 - 0:28]

e---------------------------------------|
b---------------------------------------|
g-2-3-2---2-3-2---2-3-2---2-3-2---------|
d-------3-------3-------3-------3-------|
a---------------------------------------|
e---------------------------------------|

[0:29 - 0:30]

 [h]        [h]        [p][p]
e---------------------------------------|
b---------------------------------------|
g-9--9-------12--12-----5--5------------|
d-x--x--x-x---x---x--x--x--x------------|
a-7--7--x-x--10--10--x--3--3------------|
e-------x-x----------x------------------|

[0:31 - 0:36]

                                   [h]       [h]        [p][p][h]
e-----------------------------------------------------------------|
b-----------------------------------------------------------------|
g-9-9-9-9-9-9-9-9-9-9-9-9-9-9-9-9---9--9------12--12-----5--5--5--|
d-x-x-x-x-x-x-x-x-x-x-x-x-x-x-x-x---x--x--x-x--x---x--x--x--x--x--|
a-7-7-7-7-7-7-7-7-7-7-7-7-7-7-7-7---7--7--x-x-10--10--x--3--3--3--|
e-----------------------------------------x-x---------x-----------|

[0:37 - 0:40]

e---------------------------------------|
b---------------------------------------|
g-2-3-2---2-3-2---2-3-2---2-3-2---------|
d-------3-------3-------3-------3-------|
a---------------------------------------|
e---------------------------------------|

[0:41 - 0:43]

 [h]        [h]
e---------------------------------------|
b---------------------------------------|
g-9--9-------12--12-----5--5--5---------|
d-x--x--x-x---x---x--x--x--x--x---------|
a-7--7--x-x--10--10--x--3--3--3---------|
e-------x-x----------x------------------|

Finishing the rest soon.
Tap to rate this tab
# A B C D E F G H I J K L M N O P Q R S T U V W X Y Z