Song name
# A B C D E F G H I J K L M N O P Q R S T U V W X Y Z

From Autumn To Ashes - Vi tab

Help us improve GuitareTab! Take a short survey!
artist: From Autumn To Ashes
Song:VI
album:sin, sorrow and sadness
tabbed by: Hal McMahon

The songs on a pianio but it's still sounds cool on guitar...

e--------------------------------|
b--------------------------------|
g--------------------------------|
d---2--4-5-4-2-4--0--4-5-4-0-4---|X2
a--------------------------------|
e--------------------------------|


e---------------------------------------------------------------------|
b---------------------------------------------------------------------|
g---------4-2-0----------4-0--------4-2-0----------4-2-0--------------|
d---2-4-5-------4--0-4-5------2-4-5-------4--0-4-5---------4----------|
a---------------------------------------------------------------------|
e---------------------------------------------------------------------|

e-----------|        e-----------|
b-----------|        b-----------|
g-----------|        g-----------|
d---2-4-5-4-|X4      d---0-4-5-4-|X4
a-----------|        a-----------|
e-----------|        e-----------|

e-----------|        e-----------|
b-----------|        b-----------|
g-----------|        g-----------|
d---2-4-5-4-|X4      d---0-4-5-4-|X4
a-----------|        a-----------|
e-----------|        e-----------|

e---------------------------------|
b---------------------------------|
g---------4-2-0----------4-2-0----|
d---2-4-5-------4--0-4-5-------4--|
a---------------------------------|
e---------------------------------|

e-------------------------------------|
b-------------------------------------|
g---------4-2-0----------4-2-0--------|
d---2-4-5-------4--0-4-5-------4---0--|
a-------------------------------------|
e-------------------------------------|

e-----------|        e-----------|
b-----------|        b-----------|
g-----------|        g-----------|
d---2-4-5-4-|X4      d---0-4-5-4-|X4
a-----------|        a-----------|
e-----------|        e-----------|

e-----------|        e-----------|
b-----------|        b-----------|
g-----------|        g-----------|
d---2-4-5-4-|X4      d---0-4-5-4-|X4
a-----------|        a-----------|
e-----------|        e-----------|

e---------------------------------|
b---------------------------------|
g---------4-2-0----------4--------|
d---2-4-5-------4--0-4-5---4------|
a---------------------------------|
e---------------------------------|

e-------------------------------------------|
b-------------------------------------------|
g---------4-2-0----------4-5-4-2-4-2-0------|
d-----4-5-------4--0-4-5---------------4-0--|
a---3---------------------------------------|
e-------------------------------------------|

and thats that...
Related for Vi tab