Song name
# A B C D E F G H I J K L M N O P Q R S T U V W X Y Z

From Autumn To Ashes - Im The Best At Ruining My Life tab

----------------------------------------------------------------------------          
I'm The Best At Ruining My Life - From Autumn To Ashes
----------------------------------------------------------------------------

Tabbed by: kiefermatot

Email: bamcky2k_69@hotmail.com

Tuning: Standard - EADGBE


Intro:

Guitar One:
|---------------------------------------------------------------------|
|---------0----------------0----------------0----------------0--------|
|-----0-----0----------0-----0----------0-----0----------0-----0------| x 2
|---5---5------5-----5---5------5-----5---5------5-----5---5------5---|
|-7--------------7-7--------------7-7--------------7-7--------------7-|
|---------------------------------------------------------------------|

Guitar Two:
|---------------------------------------------------------------------|
|---------------------------------------------------------------------|
|---------------------------------------------------------------------| x 2
|---------------------------------------------------------------------|
|-7----------------5----------------5----------------7----------------|
|---------------------------------------------------------------------|

Guitar One:
|----------------------------------|
|----------------------------------|
|----------77777777-00000000-------| x2
|-22222222-77777777-44444444-22222-|
|-22222222-55555555-55555555-22222-|
|-00000000-------------------00000-|

Guitar Two:
|----------------------------------|
|----------------------------------|
|----------77777777-00000000-------| x2
|-22222222-77777777-44444444-22222-|
|-22222222-55555555-55555555-22222-|
|-00000000-------------------00000-|

Verse:

Guitar One:
|------------------|
|---------0--------|
|-----0-----0------| x8
|---5---5------5---|
|-7--------------7-|
|------------------|

Guitar Two:
|------------------|
|------------------|
|------------------| x8
|------------------|
|-2----------------|
|-0----------------|
This isn't exact, but it's something to build off of.  Play it slower than in the intro.

Chorus:

Guitar One:
|----------------------------------------------------------------------|
|----------------------------------------------------------------------|
|-9--9-9-9--11--11-11-11--11/12-12/14-14-14-14/16-16-16-16/12-12-12-12-| x4
|-x--x-x-x---x---x--x--x---x--x--x--x--x--x--x--x--x--x--x--x--x--x--x-|
|-7--7-7-7---9---9--9--9---9/10-10/12-12-12-12/14-14-14-14/10-10-10-10-|
|----------------------------------------------------------------------|

Guitar Two:
|----------------------------------------------------------------------|
|----------------------------------------------------------------------|
|-----------11--11-11-11--11/12-12/14-14-14-14/16-16-16-16/12-12-12-12-| x4
|-2--2-2-2---x---x--x--x---x--x--x--x--x--x--x--x--x--x--x--x--x--x--x-|
|-2--2-2-2---9---9--9--9---9/10-10/12-12-12-12/14-14-14-14/10-10-10-10-|
|-0--0-0-0-------------------------------------------------------------|

Guitar One:
|----------------------------------|
|----------------------------------|
|----------77777777-00000000-------| x2
|-22222222-77777777-44444444-22222-|
|-22222222-55555555-55555555-22222-|
|-00000000-------------------00000-|

Guitar Two:
|----------------------------------|
|----------------------------------|
|----------77777777-00000000-------| x2
|-22222222-77777777-44444444-22222-|
|-22222222-55555555-55555555-22222-|
|-00000000-------------------00000-|

Verse:

Guitar One:
|------------------|
|---------0--------|
|-----0-----0------| x8
|---5---5------5---|
|-7--------------7-|
|------------------|

Guitar Two:
|------------------|
|------------------|
|------------------| x8
|------------------|
|-2----------------|
|-0----------------|


Chorus:

Guitar One:
|----------------------------------------------------------------------|
|----------------------------------------------------------------------|
|-9--9-9-9--11--11-11-11--11/12-12/14-14-14-14/16-16-16-16/12-12-12-12-| x4
|-x--x-x-x---x---x--x--x---x--x--x--x--x--x--x--x--x--x--x--x--x--x--x-|
|-7--7-7-7---9---9--9--9---9/10-10/12-12-12-12/14-14-14-14/10-10-10-10-|
|----------------------------------------------------------------------|

Guitar Two:
|----------------------------------------------------------------------|
|----------------------------------------------------------------------|
|-----------11--11-11-11--11/12-12/14-14-14-14/16-16-16-16/12-12-12-12-| x4
|-2--2-2-2---x---x--x--x---x--x--x--x--x--x--x--x--x--x--x--x--x--x--x-|
|-2--2-2-2---9---9--9--9---9/10-10/12-12-12-12/14-14-14-14/10-10-10-10-|
|-0--0-0-0-------------------------------------------------------------|

Guitar One:
|----------------------------------|
|----------------------------------|
|----------77777777-00000000-------| x2
|-22222222-77777777-44444444-22222-|
|-22222222-55555555-55555555-22222-|
|-00000000-------------------00000-|

Guitar Two:
|----------------------------------|
|----------------------------------|
|----------77777777-00000000-------| x2
|-22222222-77777777-44444444-22222-|
|-22222222-55555555-55555555-22222-|
|-00000000-------------------00000-|


Part before bridge:

Guitar One:
|---------------------------|
|---------------------------|
|---------------------------|
|-2-----------2-----------2-|
|-2(let ring)-2(let ring)-2-|
|-0-----------0-----------0-|

Guitar Two:
|---------------------------|
|---------------------------|
|---------------------------|
|---------------------------|
|---------------------------|
|---------------------------|


Bridge:  The stars indicate that the notes or chords are played faster.

Guitar One: 
|-------------------------------------------------------------------|
|-------------------------------------------------------------------|
|---------------77--77-77-*7777*--00--00-00-*0000*-99--99-99-*9999*-|
|-22-22-*2222*--77--77-77-*7777*--44--44-44-*4444*-99--99-99-*9999*-|
|-22-22-*2222*--55--55-55-*5555*--55--55-55-*5555*-77--77-77-*7777*-|
|-00-00-*0000*------------------------------------------------------|
PM.................................................................         

Guitar Two:
|-------------------------------------------------------------------|
|-------------------------------------------------------------------|
|---------------77--77-77-*7777*--00--00-00-*0000*-99--99-99-*9999*-|
|-22-22-*2222*--77--77-77-*7777*--44--44-44-*4444*-99--99-99-*9999*-|
|-22-22-*2222*--55--55-55-*5555*--55--55-55-*5555*-77--77-77-*7777*-|
|-00-00-*0000*------------------------------------------------------|
PM................................................................

Guitar One:
|-------------------------------------------------------------------------|
|-------------------------------------------------------------------------|
|-------------------77--77-77-*7777*--00--00-00-*0000*-999999999999999999-|
|-22--22-22-*2222*--77--77-77-*7777*--44--44-44-*4444*-999999999999999999-|
|-22--22-22-*2222*--55--55-55-*5555*--55--55-55-*5555*-777777777777777777-|
|-00--00-00-*0000*--------------------------------------------------------|
|PM......................................................................   

Guitar Two:
|-------------------------------------------------------------------------|
|-------------------------------------------------------------------------|
|-------------------77--77-77-*7777*--00--00-00-*0000*-999999999999999999-|
|-22--22-22-*2222*--77--77-77-*7777*--44--44-44-*4444*-999999999999999999-|
|-22--22-22-*2222*--55--55-55-*5555*--55--55-55-*5555*-777777777777777777-|
|-00--00-00-*0000*--------------------------------------------------------|
Pm.......................................................................

Guitar One:
|-------------------------------|
|-------------------------------|
|-9--11--12--14--16--18--19--21-|
|-9--11--12--14--16--18--19--21-|
|-7---9--10--12--14--16--17--19-|
|-------------------------------|

Guitar Two:
|-------------------------------|
|-------------------------------|
|-9--11--12--14--16--18--19--21-|
|-9--11--12--14--16--18--19--21-|
|-7---9--10--12--14--16--17--19-|
|-------------------------------|
Both guitars play each chord 16 times.

Chorus:

Guitar One:
|----------------------------------------------------------------------|
|----------------------------------------------------------------------|
|-9--9-9-9--11--11-11-11--11/12-12/14-14-14-14/16-16-16-16/12-12-12-12-| x4
|-x--x-x-x---x---x--x--x---x--x--x--x--x--x--x--x--x--x--x--x--x--x--x-|
|-7--7-7-7---9---9--9--9---9/10-10/12-12-12-12/14-14-14-14/10-10-10-10-|
|----------------------------------------------------------------------|

Guitar Two:
|----------------------------------------------------------------------|
|----------------------------------------------------------------------|
|-----------11--11-11-11--11/12-12/14-14-14-14/16-16-16-16/12-12-12-12-| x4
|-2--2-2-2---x---x--x--x---x--x--x--x--x--x--x--x--x--x--x--x--x--x--x-|
|-2--2-2-2---9---9--9--9---9/10-10/12-12-12-12/14-14-14-14/10-10-10-10-|
|-0--0-0-0-------------------------------------------------------------|


Outro:

Guitar One:
|---------------|
|---------------|
|---------------|
|-2-----------2-|
|-2(let ring)-2-|
|-0-----------0-|

Guitar Two:
|---------------|
|---------------|
|---------------|
|---------------|
|---------------|
|---------------|

Guitar One:
|----------------------------------|
|----------------------------------|
|----------77777777-00000000-------| x2
|-22222222-77777777-44444444-22222-|
|-22222222-55555555-55555555-22222-|
|-00000000-------------------00000-|

Guitar Two:
|----------------------------------|
|----------------------------------|
|----------77777777-00000000-------| x2
|-22222222-77777777-44444444-22222-|
|-22222222-55555555-55555555-22222-|
|-00000000-------------------00000-|


| .  palm mute note
| /  slide up
| \  slide down
| h  hammer-on
| p  pull-off
| ~  vibrato
| +  harmonic
| x  Mute note
============================================================================
Tap to rate this tab
# A B C D E F G H I J K L M N O P Q R S T U V W X Y Z