Song name
# A B C D E F G H I J K L M N O P Q R S T U V W X Y Z

From Autumn To Ashes - Kansas City 90210 tab

So I looked at some other tab and after trying to use it to play the intro to the song, 
found it was completely wrong. So... after fiddling around with it I found a much easier 
to play it... and more correct way too ;)

Intro:
E|--------7---------12--------|
B|------8----8h10------13h12--|
G|----9-----------------------|  4x
D|--9-------------------------|
A|----------------------------|
E|----------------------------|

OR....


Intro:
E|--------7---------12--8h7---|
B|------8----8h10-------------|
G|----9-----------------------|  4x
D|--9-------------------------|
A|----------------------------|
E|----------------------------|

And there you go...
Hope this helps
Tap to rate this tab
# A B C D E F G H I J K L M N O P Q R S T U V W X Y Z