Song name
# A B C D E F G H I J K L M N O P Q R S T U V W X Y Z

From Autumn To Ashes - Sugar Wolf tab

Hey, i was looking at some other tabs for this song and disagreed with them, plus i
part of the solo so check it out.  To me this sounds accurate, though i am sure some would
 I have most of the song minus the second half of the solo and parts of the interlude.  
to the song and you can get figure out the beat, and email me with any
at nblingle@comcast.net

Tuning:  Standard
b=bend
*=palm mute


Intro
(Lead)
e -7-7-7--------------------------7-8-10------------------------------------|
B -------7-7-7-8-8-8-------7-8-10-------------------------------------------|
G -------------------9-9-9--------------------------------------------------|
D --------------------------------------------------------------------------|
A --------------------------------------------------------------------------|
E --------------------------------------------------------------------------|

(This is the rhythm part that comes in)
e --------------------------------------------------------------------------|
B --------------------------------------------------------------------------|
G --------------------------------------------------------------------------|
D --------------------------------------------------------------------------|
A --------------------------------------------------------------------------|
E -3-3-3-0-0-0-3-3-3-0-0-0-3-0-3-0-3-0--------------------------------------|
   * * * * * * * * * * * * * * * * * *

(End of Intro)
e --------------------------------------------------------------------------|
B --------------------------------------------------------------------------|
G --9-7-5-------------------------------------------------------------------|
D --X-X-X-------------------------------------------------------------------|
A --7-5-3-------------------------------------------------------------------|
E --------------------------------------------------------------------------|

(Verse)
e --------------------------------------------------------------------------|
B --------------------------------------------------------------------------|
G --------------------------------------------------------------------------|
D -9-9-7-9-7-9-7-9-10-------------------------------------------------------|
A -7-7-7-7-7-7-7-7-7--------------------------------------------------------|
E --------------------------------------------------------------------------|


e --------------------------------------------------------------------------|
B --------------------------------------------------------------------------|
G -5-5-5-5-7-7-7-7-12-12-12-12-11-11-11-11----------------------------------|
D -X-X-X-X-X-X-X-X-X--X--X--X--X--X--X--X-----------------------------------|
A -3-3-3-3-5-5-5-5-10-10-10-10-9--9--9--9-----------------------------------|
E --------------------------------------------------------------------------|

(Chorus)

e -------0---------------------0-------------------------------------------|
B -------0---------------------0-------------------------------------------|
G -------0-7-7-7-5-5-5-5-------0-------------------------------------------|
D -2-2-2-2-7-7-7-5-5-5-5-2-2-2-2-5-5-5-7-7-7-------------------------------|
A -2-2-2-2-5-5-5-3-3-3-3-2-2-2-2-5-5-5-7-7-7-------------------------------|
E -0-0-0-0---------------0-0-0-0-3-3-3-5-5-5-------------------------------|
   * * * *               * * * *

(Interlude)
e -7---10---8-7----7----7---10---8-7----------------------------------------|
B ---8----8-----10--------8----8-----10--3-5-9-7---3-5-8-7------------------|
G --------------------------------------------------------------------------|
D --------------------------------------------------------------------------|
A ---------------------------------------2-3-8-5---2-3-8-5------------------|
E --------------------------------------------------------------------------|

(Part Right Before Solo)
e -8-7-------------7-8-7----------------------------------------------------|
B -----10-8-7-8-10-------10-8-----------------------------------------------|
G --------------------------------------------------------------------------|
D --------------------------------------------------------------------------|
A --------------------------------------------------------------------------|
E --------------------------------------------------------------------------|


(Solo)

e -----------------------------------10--7b-7-8-7---------------7-8-10------|
B ----------------------7-8-10---7-8--------------10-8---7-8-10-------------|
G ------------------7-9-----------------------------------------------------|
D -----------7-9-10---------------------------------------------------------|
A ----7-9-10----------------------------------------------------------------|
E -10-----------------------------------------------------------------------|

e -10b-10-8-7-8-----------7-8-10-12-14-15-----------------------------------|
B ------------------7-8-10--------------------------------------------------|
G --------------7-9---------------------------------------------------------|
D --------------------------------------------------------------------------|
A --------------------------------------------------------------------------|
E --------------------------------------------------------------------------|
Tap to rate this tab
 
# A B C D E F G H I J K L M N O P Q R S T U V W X Y Z