Guitaretab - guitar tabs
Song name
# A B C D E F G H I J K L M N O P Q R S T U V W X Y Z

From Autumn To Ashes - Placentapede tab

tabbed by:nirvana 02010 AIM.com


P:pull off
*:pinch harmonics
\:slide down

Intro/verse
e|----------------------------------------------------------------|
B|----------------------------------------------------------------|
G|----------------------------------------------------------------|
D|-----------------------------------14P12P11-14P12P11-14P12P11---|
A|--10P7-7-9-5-5-5-7-7-7-10P7-7-9---------------------------------|
E|----------------------------------------------------------------|


e|------------------------------------------------------------|
B|------------------------------------------------------------|
G|------------------------------------------------------------|
D|---------------------------------444444-----(44444)---------|()after intro
A|10P7-7-9-5-5-5-7-7-7-10P7-7-9--2-222222---2-(22222)---------|
E|------------------------------------------------------------|
P.M.                               ......


Pre-Chorus
e|----------------------------------------------------------------|
B|----------------------------------------------------------------|
G|----------------------------------------------------------------|
D|-------------------------------5-----7-----5-5-5-5-7-7-7-7------|
A|--10P7-7-9-5-5-7-7-2-2-3-3-2-3---4-5-------3-3-3-3-5-5-5-5------|
E|----------------------------------------------------------------|
P.M.                         . .    . .      . . . .

[ Tab from: http://www.guitaretab.com/f/from-autumn-to-ashes/67500.html ]
Chorus
e|----------------------------------------------------------------------|
B|----------------------------------------------------------------------|
G|----------------------------------------------------------------------|
D|----------------------------------------------------------------------|
A|--5-5-5-5-5-5-5-5-5-5-5---7-7-7-7-7-7-7-7-7--9-9-9-9-9-9-9-9-9-9------|
E|--3-3-3-3-3-3-3-3-3-3-3---5-5-5-5-5-5-5-5-5--7-7-7-7-7-7-7-7-7-7------|

e|------------------------------------------------------------------------|
B|------------------------------------------------------------------------|
G|------------------------------12-12-12-12-14-14-14-14-16-16-16-16-17-17-|
D|-------------------------------x--x--x--x--x--x--x--x--x-x-x-x--x--x--x-|
A|--7-7-7-7-7-7-7-7-7-7-7-7-----10-10-10-10-12-12-12-12-14-14-14-14-15-15-|
E|--5-5-5-5-5-5-5-5-5-5-5-5-----------------------------------------------|

e|------------------------------------------------------|
B|------------------------------------------------------|
G|--17-17-----------------------------------------------|
D|--x--x------------------------------------------------|
A|--15-15-----------------------------------------------|
E|------------------------------------------------------|

Interlude
e|--------------------------------------------------------------|
B|--7\8-8-8-8\10-10-10-10\-12-12-12\14-14-14-5---(10)-----------|play the 10
G|--------------------------------------------------------------|the second
D|--------------------------------------------------------------|time after
A|-------------------------------------------------*5--*2-------|the 5.
E|-----------------------------------------------0----0---------|
P.M.                                             .    .


e|------------------------------------------------------|
B|------------------------------------------------------|
G|--5-5-5-5-5-5-7-7-7-7-7-7-4-4-4-4-4-4\5---------------|
D|--3-3-3-3-3-3-5-5-5-5-5-5-2-2-2-2-2-2\3---------------|
A|------------------------------------------------------|
E|------------------------------------------------------|

then verse... i havn't quite got the solo finished but i'm gettin' there...
Related for Placentapede tab
Advertisement will be closed in 10 seconds