Song name
# A B C D E F G H I J K L M N O P Q R S T U V W X Y Z

From Autumn To Ashes - Chloroform Perfum tab

****************************************************************************
***********Chloroform perfum by from autumn to ashes************************
****************************************************************************
Tuning-standard
Tabbed by-scottish girl skater(scottishgirlskater@hotmail.com)

Ok there's one reason im tabbing this intro and eventualy the whole song. And thats 
theres TWO guitars not one. Its easier to tell this when you listen to the punk goes 
version. If you listen to the song with one earphone/speaker youll hear this. Anyway here it goes

***Guitar1***

INTRO-Timing is weird but listen to it and you should get it
------------0----------------------------------------------------------|
------------0--------------------------0-------------------------------|
--------0---0.--0---------------0------0----------------------------0--|
-----9-------------9------9>10---------9.-----9--------------0------0.-|
--7-------------------7------------7------7------10----7>9-------9-----|
-----------------------------------------------------------------------|

------------------------------------------|
------------------------------------------|
------------------------------------------|
--------------------0--------------0------|
------9-------9>10---------0---------9----|
--7------10.----------10-7--10-7----------|

(ok this is what most people have transcribed and i give them credit for it im not 
to steal it)


***Guitar 2***
E--------0---------------0----------------0--------------0----------|
B--------0---------------0----------------0--------------0----------|
G------0-0-------------0-0--------------0-0--------------0----------|
D----9-------9--------9-------9--------9-------------9--------------|
A--7-------7---7--7/8-------7---7-7h9-------------7h9---------------|
E-------------------------------------------------------------------|

This is off of the top of my head and ill add changes soon So see ya soon
Tap to rate this tab
 
# A B C D E F G H I J K L M N O P Q R S T U V W X Y Z