Song name
# A B C D E F G H I J K L M N O P Q R S T U V W X Y Z

From Autumn To Ashes - Short For Show tab

 -------------------------------------------------------------------------------
			     Short For Show - From Autumn To Ashes

-------------------------------------------------------------------------------
Tabbed by: Kevin Barleta

Email: letters_to_juliet@hotmail.com

Tuning: Drop D


Intro 
e|---------------------------------------------------------------------------|
B|---------------------------------------------------------------------------|
G|---------------------------------------------------------------------------|
D|---------------------------------------------------------------------------|
A|-5-7-8-7--5-7-8-7----------------------5-7-8-7--5-7-8-7--------------------|
E|--0-0-0-0--0-0-0-0--44444444-3333-1111--0-0-0-0--0-0-0-0-33333333-1111-4444|
    * * * *  * * * *                      * * * *  * * * *
(repeat once)
Before verse riff (0:20)
e|---------------------------------------------------------------------------|
B|---------------------------------------------------------------------------|
G|---------------------------------------------------------------------------|
D|--------------------0|0|0|0|0|0|0|0----------------------------------------|
A|-5-7-8-7--5-7-8-7---0|0|0|0|0|0|0|0----------------------------------------|
E|--0-0-0-0--0-0-0-0--0|0|0|0|0|0|0|0----------------------------------------|
    * * * *  * * * *

Verse riff (0:24) and (1:14)

Guitar 1
Some of this is only the chord progression, figure out strumming by yourself. 
          (First Part)  (They are 10's)                     (Second Part)
e|---------------------------------------|--------------------------------------------|
B|---------------------------------------|--------------------------------------------|
G|--|-14|---|-12|--|-10|-7/9/1010-99/1010|----0|-14|--|-15|--|-10|-7/9/1010-77/1010---|
D|-0|---|-0-|---|-0|---|-----------------|----0|---|-0|---|-0|---|--------------------|
A|-0|-12|-0-|-10|-0|-8-|-5/7/8-8--77/8-8-|----0|-12|-0|-13|-0|-8-|-5/7/8-8--99/8-8----|
E|-0|---|-0-|---|-0|---|-----------------|----0|---|-0|---|-0|---|--------------------|

Guitar 2 (harmony)
e|--------------------------------------|
B|--------------------------------------|
G|--|-10|---|-9-|--|-7-|-0/5/77---55/77-|
D|-0|---|-0-|---|-0|---|-0--------------|
A|-0|-8-|-0-|-7-|-0|-5-|-0/3/55---33/55-|
E|-0|---|-0-|---|-0|---|-0--------------| (repeat for second part)

Chorus (0:54) and (1:54)
e|------------------------------------------------------|
B|------------------------------------------------------|
G|------------------------------------------------------|
D|-333333-3-1-4-0-0-00-0-00-0-00-0----------------------|
A|-333333-3-1-4-0-0-00-0-00-0-00-0----------------------|
E|-333333-3-1-4-0-0-00-0-00-0-00-0----------------------| (repeat 4 times)
                *   **   **   **

For now, I'll just skip the little breakdown or interlude, whatever you call it.
But it is on (2:05) if you wanted to know..

But here is the little bridge which starts on (2:35)
e|---------------------------------------------------------------------------|
B|---------------------------------------------------------------------------|
G|---------------------------------------------------------------------------|
D|-00000000------------------------------------------------------------------|
A|-00000000------------------------------------------------------------------|
E|-00000000-5h6p5h6-3h5p3h5-1h3p1h3-6----------------------------------------|
   ********
  (Shred It) (And again, figure out the shredding pattern)

Note to tab viewers: I tabbed out and typed down the parts of the song what I
thought was necassary. Like the chords and riffs. For things like strumming and
shredding patterns I probably didn't tab them out properly, so I'm truly sorry.
Please listen to the song, and figure them out by yourself.. ;)
                   
                          Hope you enjoy the tab!

| /  slide up
| \  slide down
| h  hammer-on
| p  pull-off
| ~  vibrato
| +  harmonic
| x  Mute note
===============================================================================
Tap to rate this tab
# A B C D E F G H I J K L M N O P Q R S T U V W X Y Z