Song name
# A B C D E F G H I J K L M N O P Q R S T U V W X Y Z

From Autumn To Ashes - Lilacs And Lolita tab

From Autumn To Ashes
Lilacs Ans Lolita

Enjoy:


Key to Notation: 
---------------- 
b = bend note 
h = hammer on 
p = pulloff 
/ = slide up 
\ = slide down 
X = muted note 
 
 
0:00 Guitar 1 (Intro) play 2x 
e|----------------------------------------------------------------------------------------| 
B|----------------------------------------------------------------------------------------| 
G|-9-----------------10\9-----------------10\9-----------------10\9-------------5-------4-| 
D|-9-----------------10\9-----------------10\9-----------------10\9-------------5-------4-| 
A|-7-7-7-7-7-7-7-7-7--8\7-7-7-7-7-7-7-7-7--8\7-7-7-7-7-7-7-7-7--8\7-7-7-7-3-3-3-3-2-2-2-2-| 
E-----------------------------------------------------------------------------------------| 
 
0:06 Guitar 2 (Intro) 
e|----------------------------------------------------------------------------------------| 
B|----------------------------------------------------------------------------------------| 
G|-------------------10\9-----------------10\9-----------------10\9-------------5-------4-| 
D|-2-----------------10\9-----------------10\9-----------------10\9-------------5-------4-| 
A|-2------------------8\7------------------8\7------------------8\7-------3-3-3-3-2-2-2-2-| 
E|-0-0-0-0-0-0-0-0-0------0-0-0-0-0-0-0-0------0-0-0-0-0-0-0-0------0-0-0-----------------| 
 
 
 
0:12 Guitars 1 and 2 (Verse 1) play 2x 
e|---------------------------------------------------------| 
B|---------------------------------------------------------| 
G|--------5\4------5-5-5\4---------------5--------------4--| 
D|--2-----5\4------5-5-5\4---------------5--------------4--| 
A|--2-2-2-3\2--2-2-3-3-3\2---3-3-3-3-3-3-3--2-2-2-2-2-2-2--| 
E|--0-0-0------0-0-----------------------------------------| 
      X X      X     X 
 
 
 
0:23 Guitar 1 (Prechorus) 
e|---------------------------| 
B|---------------------------| 
G|---------------------------|   
D|---------------------------|  
A|--9-10-9-10-9h10p9\7----7--| 
E|---------------------10----| 
		      
 
 
0:24 Guitar 1 (Chorus) play 2x 
e|-----------------------------------------------------------------------------------------| 
B|-----------------------------------------------------------------------------------------| 
G|----------9--9-9-9--5--5-5--7--7-7--------------------------9--9-9-9--5--5-5--7--7-7-7-7-| 
D|----------9--9-9-9--5--5-5--7--7-7--------------------------9--9-9-9--5--5-5--7--7-7-7-7-| 
A|-10--9-5--7--7-7-7--3--3-3--5--5-5-5/10-9--9h10-10-10-10p9--7--7-7-7--3--3-3--5--5-5-5-5-| 
E|-----------------------------------------------------------------------------------------| 
 
 
0:24 Guitar 2 (Chorus) play 4x 
e|----------------------------------------| 
B|----------------------------------------| 
G|--9--9-9--9--9-9-9--5--5-5--7--7-7-7-7--| 
D|--9--9-9--9--9-9-9--5--5-5--7--7-7-7-7--| 
A|--7--7-7--7--7-7-7--3--3-3--5--5-5-5-5--| 
E|----------------------------------------| 
 
 
0:24 Guitar 3 (Chorus) play 4x 
e|----------------------------------------| 
B|----------------------------------------| 
G|--------------------5--5-5--7--7-7-7-7--| 
D|--2--2-2--2--2-2-2--5--5-5--7--7-7-7-7--| 
A|--2--2-2--2--2-2-2--3--3-3--5--5-5-5-5--| 
E|--0--0-0--0--0-0-0----------------------| 
							 
 
 
 
0:48 Guitar 1 (Verse 2) play 5x 
e|----------------------------------------| 
B|----------------------------------------| 
G|----------------------------------------| 
D|--------9-9-9-10-10-10-9-9-9------------|   
A|--7-7-7----------------------10-10-9-9--| 
E|----------------------------------------| 
 
 
0:51 Guitar 2 (Verse 2) play 2x 
e|-----------------------------------------------| 
B|-----------------------------------------------| 
G|--9-9-9-9--9-9-9-9--9-9--5-5-5-5--5-5-5-5--7-7-| 
D|--9-9-9-9--9-9-9-9--9-9--5-5-5-5--5-5-5-5--7-7-| 
A|--7-7-7-7--7-7-7-7--7-7--3-3-3-3--3-3-3-3--5-5-| 
E|-----------------------------------------------| 
 
1:02 Guitar 1 (Verse 2) 
e|------------------------------------------------------------------------------| 
B|------------------------------------------------------------------------------| 
G|-------------------------5-5-5-5--5-5-5-5--7-7--------------------------5---7-|	 
D|--2-2-2-2--2-2-2-2--2-2--5-5-5-5--5-5-5-5--7-7---2-2-2-2--2-2-2-2--2-2--5---7-| 
A|--2-2-2-2--2-2-2-2--2-2--3-3-3-3--3-3-3-3--5-5---2-2-2-2--2-2-2-2--2-2--3---5-| 
E|--0-0-0-0--0-0-0-0--0-0--------------------------0-0-0-0--0-0-0-0--0-0--------| 
 
 
1:02 Guitar 2 (Verse 2) 
e|------------------------------------------------------------------------------| 
B|------------------------------------------------------------------------------| 
G|-9-9-9-9--9-9-9-9--9-9--5-5-5-5--5-5-5-5--7-7---9-9-9-9--9-9-9-9--9-9--5---7--| 
D|-9-9-9-9--9-9-9-9--9-9--5-5-5-5--5-5-5-5--7-7---9-9-9-9--9-9-9-9--9-9--5---7--| 
A|-7-7-7-7--7-7-7-7--7-7--3-3-3-3--3-3-3-3--5-5---7-7-7-7--7-7-7-7--7-7--3---5--| 
E|------------------------------------------------------------------------------| 
 
 
 
{1:13 repeat chorus} 
 
 
 
1:37 Guitar 1 (Interlude) 
e|----------------------------------------------------------------------------------------| 
B|----------------------------------------------------------------------------------------| 
G|-9-----------------10\9-----------------10\9-----------------10\9-------------5-------4-|  
D|-9-----------------10\9-----------------10\9-----------------10\9-------------5-------4-| 
A|-7-7-7-7-7-7-7-7-7--8\7-7-7-7-7-7-7-7-7--8\7-7-7-7-7-7-7-7-7--8\7-7-7-7-3-3-3-3-2-2-2-2-| 
E|----------------------------------------------------------------------------------------| 
 
1:43 Guitar 1 (Interlude) 
e|---------------------------------------------| 
B|------------------------------13b------------|  
G|------------------------------12b-----5/7-9--| 
D|--------------------------------------5/7-9--| 
A|-7-7-7-7-7-7-7-7-7-7-7-7-7-7----------3/5-7--| 
E|---------------------------------------------| 
 
1:43 Guitar 2 (Interlude) 
e|---------------------------------------------| 
B|------------------------------13b------------|  
G|------------------------------12b-----5/7-9--| 
D|--------------------------------------5/7-9--| 
A|-2-2-2-2-2-2-2-2-2-2-2-2-2-2----------3/5-7--| 
E|-0-0-0-0-0-0-0-0-0-0-0-0-0-0-----------------| 
 
 
 
 
1:46 Guitars 1 and 2 (Verse 3) play 3x 
e|---------------------------------------------------------------| 
B|---------------------------------------------------------------| 
G|-------------------------9-9-9--------------------------5/7-9--| 
D|--2-2-2--2-2-2-2--2-2-2--9-9-9---2-2-2--2-2-2-2--2-2-2--5/7-9--|  
A|--2-2-2--2-2-2-2--2-2-2--7-7-7---2-2-2--2-2-2-2--2-2-2--3/5-7--| 
E|--0-0-0--0-0-0-0--0-0-0----------0-0-0--0-0-0-0--0-0-0---------| 
 
 
2:04 Guitars 1 and 2 (Verse 3) 
e|--------------------------------------------------------| 
B|--------------------------------------------------------| 
G|-------------------------9-9-9-------------------5---7--|   
D|--2-2-2--2-2-2-2--2-2-2--9-9-9---2-2-2--2-2-2----5---7--|  
A|--2-2-2--2-2-2-2--2-2-2--7-7-7---2-2-2--2-2-2----3---5--| 
E|--0-0-0--0-0-0-0--0-0-0----------0-0-0--0-0-0--0---0----| 
 
 
{2:09 repeat chorus} 
 
 
2:33 Guitar 1 (End) 
e|-----| 
B|-----| 
G|--9--| 
D|--9--| 
A|--7--| 
E|-----| 
 
2:33 Guitar 2 (End) 
e|-----| 
B|-----| 
G|-----| 
D|--2--| 
A|--2--| 
E|--0--|
Tap to rate this tab
# A B C D E F G H I J K L M N O P Q R S T U V W X Y Z