Guitaretab - guitar tabs
Song name
# A B C D E F G H I J K L M N O P Q R S T U V W X Y Z

From First To Last - Emiuy tab

I wan to dedicated this tab to my friend gaby, because I learn this song for her, and I 
that someday sheíll learn the song with this tab, XOXO(learn it gaby, I tab this song 
you =S, and itís very easy to learn, I know you can <3)

chords

    C5      D5         E5      G5
e|--x-------x------|----x-------x----|
b|--0-------0------|----0-------0----|
g|--0-------0------|----0-------0----|
d|--5-------7------|----9------12----|
a|--3-------5------|----7------10----|
E|--x-------x------|----x-------x----|


Intro

1st and 2nd guitar

e|-----------------|-----------------|-----------------|
b|----------0------|----------0------|---------0-------|
g|------------0----|------------0----|-----------0-----|
d|------5----------|------9----------|------7----------|
a|--3-3--3---------|--7-7--7---------|--5-5---5--------|
E|-----------------|-----------------|-----------------|

2nd guitar


e|--------------|---------------|----------------|------------|-------------|
B|----------0---|----------0----|----------------|------------|---12*-------|
G|------------0-|------------0--|-----------7----|-------0----|------12*----|
D|------5-------|-------5-------|------4-----4---|----5----5--|-------------|
A|--3-3---3-----|--7-7----7-----|--5-5---5-------|3-3--3------|-------------|
E|--------------|---------------|----------------|------------|-------------|

e|-----------------|-----------------|
b|-----------------|-----------------|
g|---------0-------|-------7-5-4s5s4-|
d|------9----9-----|----4------------|
a|--7-7--7---------|5-5--5-----------|
E|-----------------|-----------------|


2nd guitar

e|-----------------|-----------------|-----------------------------------|
b|-----------------|-----------------|-----------------------------------|
g|-----7-----7-----|-----7s9s7-------|-5-4-0-7-5-4-5-4-2s4-2-------------|
d|-4-5---4-5-------|-4-5-------------|-----------------------------------|
a|-----------------|-----------------|-----------------------------------|
E|-----------------|-----------------|-----------------------------------|

2nd guitar

e|-----------------|-----------------|
b|-----------------|-----------------|
g|-----7-----7-----|-----7s9---------|
d|-4-5---4-5-------|-4-5-------------|
a|-----------------|-----------------|
E|-----------------|-----------------|
[ Tab from: http://www.guitaretab.com/f/from-first-to-last/101728.html ]
|------------------------------------------------------------|
|------------------------------------------------------------|
|-11s12-12-12-12-11-11-11-12-12-12s14-14-14-12-12-12-11-11---|
|------------------------------------------------------------|
|------------------------------------------------------------|
|------------------------------------------------------------|

Verse

Second guitar (repeat during the verses)

e|------------------------|-----------------|-----------------|-----------------|
b|-----0-----------0------|-------0---------|-----------------|-----------------|
g|-------0----------0-----|--------0--------|---------0-------|--7-5-4s5s4------|
d|---5-----5---5--------5-|----5------------|--4--4------4----|-----------------|
a|3-3-3---3--3---3----3---|7-7--7-----------|5---5--5---------|-----------------|
E|------------------------|-----------------|-----------------|-----------------|



First guitar (itís the same way for both verses)

Verses#1

C5
Smiles and her laughter
E5                     D5                   C5
itís the only thing that I've been waiting for a time
     E5               D5              C5
Regardless of our distance and our hope...grows greater
E5                 D5               C5
Trapped by pretty eyes and letters for all time
      E5            D5                       E5-D5-G5
...the only thing that I've been waiting for.

Chorus

FIRST CHORUS

G5                                      E5-D5-C5
I hope it's something worth the waiting
C5	                                         E5-D5-G5
'Cause it's the only time that I ever feel real
G5                                 E5-D5-C5
Thunder storms could never stop me
C5
'Cause there's no one in the world like Emily

Verses#2

She's simple yet confusing
Her sparkling eyes make me weak at my words, they tremble
Days seem like years in this month of December
The winter coldens me for I have yet to sleep
And never will I give up trying 'cause you're everything to me

SECOND CHORUS

G5                                      E5-D5-C5
I hope it's something worth the waiting
C5	                                         E5-D5-G5
It's the only time that I ever feel real
G5                                      E5-D5-C5
'Cause thunder storms could never stop me
C5
'Cause there's no one in the world like Emily,

There's no one in the world like Emily...
e|-----------------|-----------------|
b|-----------------|--12*------------|
g|-----------------|--12*------------|
d|------5----------|-----------------|
a|--3-3---3--------|-----------------|
E|-----------------|-----------------|
There's no one in the world like Emily!!...

This is a a great song, the first time that I play it was with one of the tab of this 
but that tab said it was the best according to the votes but if you hear it with lots of 
you can hear that the second guitar sounds diferent
Order:

Intro
Verse
Chorus
intro
Verses
chorus

*: armonics
S: slide
Related for Emiuy tab