Song name
# A B C D E F G H I J K L M N O P Q R S T U V W X Y Z

From First To Last - I Once Was Lost But Now Am Profound tab

okay im taking a shot at this song
but this is only Travis' Part
i'll have Matts up in a while



TRAVIS

Intro
d|--------------------------------------------|
A|--------------------------------------------|
F|---8-8-8-888-8----------8-8-8-888-8---------|
C|---x-x-x-xxx-x--00-00---x-x-x-xxx-x--00-00--|
G|---6-6-6-666-6--00-00---6-6-6-666-6--00-00--|
C|----------------00-00----------------00-00--|
PM                .. ..                .. ..
(Continued)
d|--------------------------------------------|
A|--------------------------------------------|
F|--------------------------------------------|
C|---9-9-9-9-9\-00000------9-9-9-9-9\-00000---|
G|---9-9-9-9-9\-00000------9-9-9-9-9\-00000---|
C|---9-9-9-9-9\-00000------9-9-9-9-9\-00000---|
PM              .....                 .....

Verse x2
d|--------------------------------------------|
A|--------------------------------------------|
F|--------------------------------------------|
C|--99999999--4--6~--4--6/7-------------------|
G|--99999999--4------4-------6-6-6-6-7--------|
C|--99999999--4------4--------4-4-4-----------|

Pre-Chorus
d|--------------------------------------------|
A|--------------------------------------------|
F|--------------------------------------------|
C|---9\------9\-------------------------------|
G|---9\------9\-------------------------------|
C|---9\------9\-------------------------------|
Chorus
d|----------------------------------------------------|
A|---44444444-----------------------------------------|
F|---33333333--44444444-33333333-44444444-------------|
C|---11111111--44444444-33333333-44444444--444444444--|
G|-------------22222222-11111111-22222222--444444444--|
C|-----------------------------------------444444444--|
Post-Chorus x2
d|--------------------------------------------|
A|--------------------------------------------|
F|--------------------------------------------|
C|--4~--4-4-4---3-----------------------------|
G|--4~--4-4-4---3-----------------------------|
C|--4~--4-4-4---3-----------------------------|

2nd Verse x4
d|--------------------------------------------|
A|--------------------------------------------|
F|--------------------------------------------|
C|--------------------------------------------|
G|------6-----6-----6-----6-----6-------------|
C|--0-4---0-4---0-4---0-4---0-4---------------|

Chorus again 4x

then Intro

then Chorus till the end
Tap to rate this tab
 
# A B C D E F G H I J K L M N O P Q R S T U V W X Y Z