Guitaretab - guitar tabs
Song name
# A B C D E F G H I J K L M N O P Q R S T U V W X Y Z

From First To Last - Note To Self tab

-------------------------------------------------------------------------------
			     Note To Self - Common Enemy
-------------------------------------------------------------------------------
Tabbed by: Omar Garcia
Email: ravage.cramoisi@gmail.com

Tuning: Standar

XsY = Slide X note to Y note

Listen to the song to get the rhythm


Intro
        x8
e|----------------|---|
B|----------------|---|
G|----------------|---|
D|-7-9-10--101010-|-7-|
A|-5-7--8---8-8-8-|-5-|
E|----------------|---|

Verse
e|-----------------------------|
B|-----------------------------|
G|-----------------------------|
D|-77777-99999-------7s8-7s8s7-| x2
A|-55555-77777-77777-5s6-5s6s5-|
E|-------------55555-----------|

Too many thoughts my minds a mess,
over analyze in my head
pen and paper in my brain
the second guesses drive me insane

Chorus
e|---------------|
B|---------------|
G|---------------|
D|-7-9-10---9-10-| x4
A|-5-7--8---7--8-|
E|---------------|

Note to self: Shut up!
Note to self: Shut up!
Note to self: Shut up!
Note to self: Shut up!
[ Tab from: http://www.guitaretab.com/f/from-first-to-last/132864.html ]
Verse
e|-----------------------------|
B|-----------------------------|
G|-----------------------------|
D|-77777-99999-------7s8-7s8s7-| x2
A|-55555-77777-77777-5s6-5s6s5-|
E|-------------55555-----------|

My brains online frayed at both ends,
traffic jam inside my head
treading water to get by 
and all the time Iím wondering why

Chorus
e|---------------|
B|---------------|
G|---------------|
D|-7-9-10---9-10-| x4
A|-5-7--8---7--8-|
E|---------------|

Note to self: Shut up!
Note to self: Shut up!
Note to self: Shut up!
Note to self: Shut up!

Bridge
e|----------------|
B|----------------|
G|----------------|
D|-7-9-10--101010-| x4
A|-5-7--8---8-8-8-|
E|----------------|

Bridge
e|-------------------|
B|-------------------|
G|-------------------|
D|-7-9-10-9----------| x4
A|-5-7--8-7--5-7-5-7-|
E|-----------3-5-3-5-|

And everyday, the fuse is getting shorter
and everyday life has me in
order and everyday Iím getting closer to death,
everyday is my chance

Outro
        x8
e|---------------|---|
B|---------------|---|
G|---------------|---|
D|-7-9-10---9-10-|-7-|
A|-5-7--8---7--8-|-5-|
E|---------------|---|

Note to self: Shut up!
Note to self: Shut up!
Note to self: Shut up!
Note to self: Shut up!
Shut Up! Shut Up!
Shut Up! Shut Up!
===============================================================================
Related for Note To Self tab