Song name
# A B C D E F G H I J K L M N O P Q R S T U V W X Y Z

From First To Last - In Memorium In Advance tab

Help us improve GuitareTab! Take a short survey!
Tabbed by -Doppleganger78


Artist-From First To Last
Song-In memorium In advance


Tuning-CGC-GBe
its a mix of Drop C and standard...

e|-----------------------------------------------------------------|
B|-----------------------------------------------------------------|
G|-----------------------------------------------------------------|
C|-----0-------0-------0-------0-------0-------0-------0------0----|
G|---0---0---0---0---0---0---0---0---0---0---0---0---0---0~-0---0--|
C|-4-------6-------7-------0-------4-------6-------7---------------|

e|-----0-------0-------0-------0-------0-------0----|
B|-----0-------0-------0-------0-------0-------0----|
G|-0---0---0---0---0---0---0---0-------0-------0----|
C|-4-4-4-4-6-6-6-6-7-7-7-7-0-0-0-0-7-7-7-7-6-6-6-6--|
G|-4-4-4-4-6-6-6-6-7-7-7-7-0-0-0-0-5-5-5-5-4-4-4-4--|
C|-4-4-4-4-6-6-6-6-7-7-7-7-0-0-0-0-0-0-0-0-0-0-0-0--|


"When everything is gone..."
e|-0~---|
B|-0~---|
G|-0~---|
D|-4~---|
A|-4~---|
E|-4~---|

e|-0---------------------------------3--|
B|-0---------------------------------3--|
G|-0---------------------------------0--|
D|-4---------------------------------0--|
A|-4-4-4-6-6-6-7-7-7-2-2-2-2-2-2-2-2-0--|
E|-4-4-4-6-6-6-7-7-7-2-2-2-2-2-2-2-2-0--|

Thats pretty much it...its a great song ...
Related for In Memorium In Advance tab