Song name
# A B C D E F G H I J K L M N O P Q R S T U V W X Y Z

From First To Last - Chyeaa tab

-------------------------------------------------------------------------------
			     Chyeaa - From First To Last
-------------------------------------------------------------------------------

Song: Chyeaa
Artist: From First To Last
Album: Throne To The Wolves
Tuning: Drop D

e|---------------------------------------------|
B|---------------------------------------------|
G|---------------------------------------------|
D|--0--0xxxx0--0--0---0--0--------7b8r7--------|
A|--0--0xxxx0--0--0---0--0--8-5-8--------------|
E|--0--0xxxx0--0--0---0--0---------------------|

e|---------------------------------------------|
B|---------------------------------------------|
G|---------------------------------------------|
D|--0xxxx0--0--0---0--0--------7b8r7-----------| x2
A|--0xxxx0--0--0---0--0--8-5-8-----------------|
E|--0xxxx0--0--0---0--0------------------------|

e|---------------------------------------------|
B|---------------------------------------------|
G|---------------------------------------------|
D|----5b6r5----3b4r3-----2^-2^-----------------|
A|--5--------5-------035-----------------------|
E|---------------------------------------------|

Repeat the whole thing 4 times

************************************

| /   slide up
| \   slide down
| h   hammer-on
| p   pull-off
| ~   vibrato
| +   harmonic
| x   Mute note
| b   Bend
| pb  Pre-bend
| br  Bend release
| pbr Pre-bend release
| brb Bend release bend
| ^   Tremolo Bar

************************************
Tap to rate this tab
# A B C D E F G H I J K L M N O P Q R S T U V W X Y Z