Song name
# A B C D E F G H I J K L M N O P Q R S T U V W X Y Z

From First To Last - Emily tab

*IMPORTANT!* Both E strings aren't used throughout the entire song
tab made by:Mark

key:
^=harmonics
h=hammer-on
p=pull-off
/=slide up
\=slide down
~=bend
*=palm mute
                                
                                (INTRO)

                             
E||-----------------------------------------------------------------|
A||--3-3---3------|--7-7---7-------5-5---5-------3-3---3------------|
D||------5-----5--|------5-----5-------4-----4-------5-----5--------|
G||---------------|---------------------------------------------^12-|
B||----------0----|----------0-------------0-------------0----^12---|
e||-----------------------------------------------------------------|
                             >Rythm Guitar<                          
E||-----------------------------------------------------------------| 
A||--3-3---3------|--7-7---7-------5-5--5-------3-3---3-------------|
D||------5--------|------9------------7-------------5---------------|
G||------------0--|------------0------------0-------------0-----^12-|
B||----------0----|----------0------------0-------------0-----^12---|
e||-----------------------------------------------------------------|
                                
                               (verse)
                             
                             
E||----------------------------------------------------------|
A||--7-7---7-------5-5---5-----------------------------------|
D||------5-----5-------4-------------4h5---4h5---4h5---------|
G||------------------------7-5-4h5p4-----7-----7-----7\9/7~--|
B||----------0-----------------------------------------------|
e||----------------------------------------------------------|
                             >Rythm Guitar<
E||----------------------------------------------------------|
A||--7-7---7-------5-5---5-------3-3---3---------------------|
D||------9-------------7-------------5-----------------------|
G||------------0-------------0-------------0-----------------|
B||----------0-------------0-------------0-------------------|
e||----------------------------------------------------------|
                             
E||-------------------------------------------------------------------------
A||-------------------------------------------------------------------------
D||------5------------------4h5---4h5---4h5---------------------------------
G||--5-4---7-5-4-5-4-2-3-2------7-----7-----7\9/7~--------------------------
B||-------------------------------------------------8-8-8-7-7-7-8-8-10-10-10
e||-------------------------------------------------------------------------

E||--------|
A||--------|
D||--------|
G||--------|
B||-8-8-7-7|
e||--------|
                             >Rythm Guitar<
E||-----------------------------------------------------------------------|
A||--7-7---7-------5-5---5-------3-3---3------7-7---7-------5-5---5-------|
D||------9-------------7-------------5------------9-------------7---------|
G||------------0-------------0-------------0------------0-------------0---|
B||----------0-------------0-------------0------------0-------------0-----|
e||-----------------------------------------------------------------------|
                                                                                   (PRE-CHORUS)

smiles and her laughter.....                                  
                             
E||-------------------------------------------------------------------|
A||-3-3---3-----3---3-3---3-----3---7-7---7-----5---5-5---5-----------|
D||-----5---------5-----5---------5-----5---------4-----4-------------| x3
G||-----------0---------------0---------------0-------------7-5-4h5p4-|
B||---------0---------------0---------------0-------------------------|
e||-------------------------------------------------------------------|

E||-----------------------------------------------------------------|
A||-3-3---3-----3---3-3---3-----3---7-7---7-----5---5-5---5-----5---|
D||-----5---------5-----5---------5-----5---------4-----4---------4-|
G||-----------0---------------0---------------0---------------0-----|
B||---------0---------------0---------------0---------------0-------|
e||-----------------------------------------------------------------|
                             >Rythm Guitar<
E||-----------------------------------------------------------|
A||-3--3--3-3-3-3--3-3--3-3-3-3--7--7--7-7-7-5--5-5--5-5-5-5--|
D||-5--5--5-5-5-5--5-5--5-5-5-5--9--9--9-9-9-7--7-7--7-7-7-7--| x4
G||-*--*--*-*-*-*--*-*--*-*-*-*--*--*--*-*-*-*--*-*--*-*-*-*--|
B||-*--*--*-*-*-*--*-*--*-*-*-*--*--*--*-*-*-*--*-*--*-*-*-*--|
e||-----------------------------------------------------------|

                                (CHORUS)
                             
                             {BOTH GUITARS}
I hope it's something worth the waiting.....
E||-----------------------------------------------------------|
A||-7-*-5-*-10--10-10-10-10--10-10--10-10--10-10--10-10-10-10-|
D||-9-*-7-*-12--12-12-12-12--12-12--12-12--12-12--12-12-12-12-|
G||-*-*-*-*-**--**-**-**-**--**-**--**-**--**-**--**-**-**-**-|
B||-*-*-*-*-**--**-**-**-**--**-**--**-**--**-**--**-**-**-**-|
e||-----------------------------------------------------------|

E||--------------------------------------------|
A||-7-*-5-*-3--3-3-3-3--3-3--3-3--3-3--3-3-3-3-|
D||-9-*-7-*-5--5-5-5-5--5-5--5-5--5-5--5-5-5-5-|
G||-*-*-*-*-*--*-*-*-*--*-*--*-*--*-*--*-*-*-*-|
B||-*-*-*-*-*--*-*-*-*--*-*--*-*--*-*--*-*-*-*-|
e||--------------------------------------------|

E||-----------------------------------------------------------|
A||-7-*-5-*-10--10-10-10-10--10-10--10-10--10-10--10-10-10-10-|
D||-9-*-7-*-12--12-12-12-12--12-12--12-12--12-12--12-12-12-12-|
G||-*-*-*-*-**--**-**-**-**--**-**--**-**--**-**--**-**-**-**-|
B||-*-*-*-*-**--**-**-**-**--**-**--**-**--**-**--**-**-**-**-|
e||-----------------------------------------------------------|

E||-------------------------------------------|
A||-7-*-5-*-3--3-3-3-3--3-3-3-3-3--5--5-5-5-5-|
D||-9-*-7-*-5--5-5-5-5--5-5-5-5-5--7--7-7-7-7-|
G||-*-*-*-*-*--*-*-*-*--*-*-*-*-*--*--*-*-*-*-|
B||-*-*-*-*-*--*-*-*-*--*-*-*-*-*--*--*-*-*-*-|
e||-------------------------------------------|

                                (verse 2)

                             
E||-----------------------------------------------------------------|
A||--3-3---3------|--7-7---7-------5-5---5-------3-3---3------------|
D||------5-----5--|------5-----5-------4-----4-------5-----5--------|
G||---------------|---------------------------------------------^12-|
B||----------0----|----------0-------------0-------------0----^12---|
e||-----------------------------------------------------------------|
                             >Rythm Guitar<                          
E||-----------------------------------------------------------------| 
A||--3-3---3------|--7-7---7-------5-5--5-------3-3---3-------------|
D||------5--------|------9------------7-------------5---------------|
G||------------0--|------------0------------0-------------0-----^12-|
B||----------0----|----------0------------0-------------0-----^12---|
e||-----------------------------------------------------------------|

                             
E||----------------------------------|
A||--7-7---7-------5-5---5-----------|
D||------5-----5-------4-------------|
G||------------------------7-5-4h5p4-|
B||----------0-----------------------|
e||----------------------------------|
                             >Rythm Guitar<
E||-----------------------------|
A||--7-7---7-------5-5---5------|
D||------9-------------7--------|
G||------------0-------------0--|
B||----------0-------------0----|
e||-----------------------------|
                              
                             (PRE-CHORUS2)
                             
                              
E||-----------------------------------------------------------------|
A||-3-3---3-----3---3-3---3-----3---7-7---7-----5---5-5---5-----5---|
D||-----5---------5-----5---------5-----5---------4-----4---------4-| x2
G||-----------0---------------0---------------0---------------0-----|
B||---------0---------------0---------------0---------------0-------|
e||-----------------------------------------------------------------|
                             
E||-------------------------------------------------------------------|
A||-3-3---3-----3---3-3---3-----3---7-7---7-----5---5-5---5-----------|
D||-----5---------5-----5---------5-----5---------4-----4-------------| x2
G||-----------0---------------0---------------0-------------7-5-4h5p4-|
B||---------0---------------0---------------0-------------------------|
e||-------------------------------------------------------------------|
                             >Rythm Guitar<
E||-----------------------------------------------------------|
A||-3--3--3-3-3-3--3-3--3-3-3-3--7--7--7-7-7-5--5-5--5-5-5-5--|
D||-5--5--5-5-5-5--5-5--5-5-5-5--9--9--9-9-9-7--7-7--7-7-7-7--| x4
G||-*--*--*-*-*-*--*-*--*-*-*-*--*--*--*-*-*-*--*-*--*-*-*-*--|
B||-*--*--*-*-*-*--*-*--*-*-*-*--*--*--*-*-*-*--*-*--*-*-*-*--|
e||-----------------------------------------------------------|

                                  (CHORUS)
                                  
                             {BOTH GUITARS}
I hope it's something worth the waiting.....
E||-----------------------------------------------------------|
A||-7-*-5-*-10--10-10-10-10--10-10--10-10--10-10--10-10-10-10-|
D||-9-*-7-*-12--12-12-12-12--12-12--12-12--12-12--12-12-12-12-|
G||-*-*-*-*-**--**-**-**-**--**-**--**-**--**-**--**-**-**-**-|
B||-*-*-*-*-**--**-**-**-**--**-**--**-**--**-**--**-**-**-**-|
e||-----------------------------------------------------------|

E||--------------------------------------------|
A||-7-*-5-*-3--3-3-3-3--3-3--3-3--3-3--3-3-3-3-|
D||-9-*-7-*-5--5-5-5-5--5-5--5-5--5-5--5-5-5-5-|
G||-*-*-*-*-*--*-*-*-*--*-*--*-*--*-*--*-*-*-*-|
B||-*-*-*-*-*--*-*-*-*--*-*--*-*--*-*--*-*-*-*-|
e||--------------------------------------------|

E||-----------------------------------------------------------|
A||-7-*-5-*-10--10-10-10-10--10-10--10-10--10-10--10-10-10-10-|
D||-9-*-7-*-12--12-12-12-12--12-12--12-12--12-12--12-12-12-12-|
G||-*-*-*-*-**--**-**-**-**--**-**--**-**--**-**--**-**-**-**-|
B||-*-*-*-*-**--**-**-**-**--**-**--**-**--**-**--**-**-**-**-|
e||-----------------------------------------------------------|

E||-------------------------------------------|
A||-7-*-5-*-3--3-3-3-3--3-3-3-3-3--5--5-5-5-5-|
D||-9-*-7-*-5--5-5-5-5--5-5-5-5-5--7--7-7-7-7-|
G||-*-*-*-*-*--*-*-*-*--*-*-*-*-*--*--*-*-*-*-|
B||-*-*-*-*-*--*-*-*-*--*-*-*-*-*--*--*-*-*-*-|
e||-------------------------------------------|

                                (OUTRO)

                             
E||------------------|
A||-3-3---3----------|
D||-----5-----5------|
G||------------------|
B||---------0----^12-|
e||------------------|
                             >Rythm Guitar<
E||------------------|
A||-3-3---3----------|
D||-----5------------|
G||-----------0------|
B||---------0----^12-|
e||------------------|
Tap to rate this tab
 
# A B C D E F G H I J K L M N O P Q R S T U V W X Y Z