Song name
# A B C D E F G H I J K L M N O P Q R S T U V W X Y Z

From First To Last - Everythings Perfect tab

FROM FIRST TO LAST
Everything's Perfect
*THIS IS IN DROP C# EVEN THOUGH THE REQUESTER PUT STANDARD* -_-

I Kinda just chucked two guitars into one.

Drum solo

Verse           x2             x2             x2
D#|-----66666666-|-----66666666-|-----66666666-|-----66666666-----55555555---|
A#|-----xxxxxxxx-|-----xxxxxxxx-|-----xxxxxxxx-|-----xxxxxxxx-----xxxxxxxx---|
F#|-----33333333-|-----33333333-|-----33333333-|-----33333333-----22222222---|
C#|-5-5----------|-1-1----------|-4-4----------|-5-5----------5-5------------|
G#|-5-5----------|-1-1----------|-4-4----------|-5-5----------5-5------------|
C#|-5-5----------|-1-1----------|-4-4----------|-5-5----------5-5------------|


Chorus
|----------------------------------------------------------------------------|
|----------------------------------------------------------------------------|
|----------------------------------------------------------------------------|
|-0-1-1-1-----------0-1-1-1-----------0-1-1-1-----------0-1-1-1--------------|
|-0-1-1-1-xxxxxxxx--0-1-1-1-xxxxxxxx--0-1-1-1-xxxxxxxx--0-1-1-1-xxxxxxxx-----|
|-0-1-1-1-xxxxxxxx--0-1-1-1-xxxxxxxx--0-1-1-1-xxxxxxxx--0-1-1-1-xxxxxxxx-----|
then
|-PICK-----------------------------------------------------------------------|
|-SCRAPE---------------------------------------------------------------------|
|-\\\\\---5----------------------------5-------------------------------------|
|-\\\\\---x--5--1----------1~-1~-1~1~--x--5--1----------1~-1~-1~1~-----------| x2
|-\\\\\---3--5--1--xxxxxx--1~-1~-1~1~--3--5--1--xxxxxx--1~-1~-1~1~-----------|
|------------5--1--xxxxxx--1~-1~-1~1~-----5--1--xxxxxx--1~-1~-1~1~-----------|


Verse 2         x2               x2               x2               x2
|----------------|----------------|----------------|-------------------------|
|----------------|----------------|----------------|-------------------------|
|----------------|----------------|----------------|-------------------------|
|----------------|----------------|----------------|-------------------------|
|-5-55-555-5-5-5-|-1-11-111-1-1-1-|-4-44-444-4-4-4-|-5-55-555-5-5-5----------|
|-5-55-555-5-5-5-|-1-11-111-1-1-1-|-4-44-444-4-4-4-|-5-55-555-5-5-5----------|


Play Whole chorus!


Bridge/Drum solo
|------------|
|------------|
|------------|
|-5~~~~~-----|
|-5~~~~~-----|
|-5~~~~~-----|
then guitar
|--------------------------------------------------|
|--------------------------------------------------|
|---8p7-10p8p7---8p7-10p8p7---8p7-10p8p7\\-cont.---|
|-5------------5------------5------------5~\1~-----| x2
|-5------------5------------5------------5~\1~-----|
|-5------------5------------5------------5~\1~-----|
||
|--------------------------------------------------|
|--------------------------------------------------|
|--cont.-------------------------------------------|
|-5~--5-5~-\1~--1-1~--1~--1-1~--1~--1-1~-----------| x2
|-5~--5-5~-\1---1-1~--1~--1-1~--1~--1-1~-----------|
|-5~--5-5~-\1~--1-1~--1~--1-1~--1~--1-1~-----------|
then two counts of the top riff^


Half Clean Interlude
|-------------------------------------------------------------------|
|----------4---------------8-----------3---4-3---3---3-4-3----3-4-3-|
|------5-----5---5-----8-----8---8-3-3---3-----3------------4-------|
|--------5-----5---------8-----8-------------------5~~--------------| x7
|-3-3--------------6-6----------------------------------------------|
|-------------------------------------------------------------------|
end on
|-------------|
|-3~~~~~~~//--|
|-4~~~//------|
|-------------|
|-------------|
|-------------|

Done :P please rate and comment!
Tap to rate this tab
# A B C D E F G H I J K L M N O P Q R S T U V W X Y Z