Song name
# A B C D E F G H I J K L M N O P Q R S T U V W X Y Z

From First To Last - My Heart Your Hands tab

  lead
e|------------------------|
B|------------------------|
G|--(pick scrape)---------|
D|----------------/-------|
A|----------------/-------|
D|----------------/-------|

  rhythm
e|------------------------------------------------------|
B|------------------------------------------------------|
G|---10----9----10----9--------10----9----10----9-------|
D|----8----8-----8----8---------0----0-----0----0-------|
A|----8----8-----8----8---------0----0-----0----0-------|
D|----8----8-----8----8---------0----0-----0----0-------|

  lead
e|------------------------------------------------------|
B|------------------------------------------------------|
G|-------14---------14--------------7---------7---------|
D|--8-----x----8-----x---------0----x----0----x---------|
A|--8----12----8----12---------0----5----0----5---------|
D|--8----------8---------------0---------0--------------|

  Lead
  [here’s a letter…]
e|------------------------------------------------------|
B|--5p0-7p0-(x8)--1010^-88-66-55--1010^-88-66-55-(x4)---|
G|------------------------------------------------------|
D|------------------------------------------------------|
A|------------------------------------------------------|
D|------------------------------------------------------|

  rhythm
e|------------------------------------------------------|
B|------------------------------------------------------|
G|------------------------------------------------------|
D|--8--xxx-8--xxx-8--xxx-8--xxx-0--xxx-0--xxx-0--xxx-0--|
A|--8--xxx-8--xxx-8--xxx-8--xxx-0--xxx-0--xxx-0--xxx-0--|
D|--8--xxx-8--xxx-8--xxx-8--xxx-0--xxx-0--xxx-0--xxx-0--|

  lead
  [I don’t know what I…]
e|------------------------------------------------------|
B|---8-8-8-8-8--10--11-----10^-8-6-5-(x3)--10^-8-11-10--|
G|---7-7-7-7-7---9--10----------------------------------|
D|--/5-5-5-5-5-/-7-/-8----------------------------------|
A|--/5-5-5-5-5-/-7-/-8----------------------------------|
D|--/5-5-5-5-5-/-7-/-8----------------------------------|

  rhythm
e|------------------------------------------------------|
B|------------------------------------------------------|
G|------------------------------------------------------|
D|--/5-5-5-5-5-/-7-/-8-------0-0-0-0-0-0-0-0------------|
A|--/5-5-5-5-5-/-7-/-8-------0-0-0-0-0-0-0-0------------|
D|--/5-5-5-5-5-/-7-/-8-------0-0-0-0-0-0-0-0------------|

  lead & rhythm
`              [nothing at all…][my heart, your hands]
e|------------------------------------------------------|
B|--------------------------x-5-x-5------------5-5-5-5--|
G|--------------------------x-8-x-8------------8-8-8-8--|
D|--0-0-0--8\----0000-0-00-----------0000-0-00----------|
A|--0-0-0--8\----0000-0-00-----------0000-0-00----------|
D|--0-0-0--8\----0000-0-00-----------0000-0-00----------|

  lead
e|--55555-55555--55555-55555--55555-55555--55555-55555--|
B|--66666-55555--66666-55555--66666-55555--66666-55555--|
G|--55555-55555--55555-55555--55555-55555--55555-55555--|
D|------------------------------------------------------|
A|------------------------------------------------------|
D|------------------------------------------------------|

  rhythm
e|-----------------------------------------------------|
B|-----------------------------------------------------|
G|-----------------------------------------------------|
D|--8888888888888-----000000000000---------------------|
A|--8888888888888-----000000000000---------------------|
D|--8888888888888-----000000000000---------------------|

  lead
  [can you feel the pain…]
e|-----------------------------------------------------|
B|-----------------------------------------------------|
G|-------14---------14--------------7---------7--------|
D|--8-----x----8-----x---------0----x----0----x--------|
A|--8----12----8----12---------0----5----0----5--------|
D|--8----------8---------------0---------0-------------|

  rhythm
e|-----------------------------------------------------|
B|-----------------------------------------------------|
G|--10----9----10----9---------10----9----10----9------|
D|---8----8-----8----8----------0----0-----0----0------|
A|---8----8-----8----8----------0----0-----0----0------|
D|---8----8-----8----8----------0----0-----0----0------|

  lead
  [here’s a letter…]
e|-----------------------------------------------------|
B|--5p0-7p0-(x12)---1010^-88-66-55----1010^-88-11-10---|
G|-----------------------------------------------------|
D|-----------------------------------------------------|
A|-----------------------------------------------------|
D|-----------------------------------------------------|

  rhythm
e|-----------------------------------------------------|
B|-----------------------------------------------------|
G|-----------------------------------------------------|
D|--888---000---888---000---888---000---888---000------|
A|--888---000---888---000---888---000---888---000------|
D|--888---000---888---000---888---000---888---000------|

  lead
  [I don’t know what I…]
e|-----------------------------------------------------|
B|---8-8-8-8-8--10--11-----10^-8-6-5-(x3)--10^-8-11-10-|
G|---7-7-7-7-7---9--10---------------------------------|
D|--/5-5-5-5-5-/-7-/-8---------------------------------|
A|--/5-5-5-5-5-/-7-/-8---------------------------------|
D|--/5-5-5-5-5-/-7-/-8---------------------------------|

  rhythm
e|------------------------------------------------------|
B|------------------------------------------------------|
G|------------------------------------------------------|
D|--/5-5-5-5-5-/-7-/-8-------0-0-0-0-0-0-0-0------------|
A|--/5-5-5-5-5-/-7-/-8-------0-0-0-0-0-0-0-0------------|
D|--/5-5-5-5-5-/-7-/-8-------0-0-0-0-0-0-0-0------------|

  lead & rhythm
                [nothing at all…]
e|------------------------------------------------------|
B|--------------------------x-5-x-5------------x-5-x-5--|
G|--------------------------x-8-x-8------------x-8-x-8--|
D|--0-0-0--8\----0000-0-00-----------0000-0-00----------|
A|--0-0-0--8\----0000-0-00-----------0000-0-00----------|
D|--0-0-0--8\----0000-0-00-----------0000-0-00----------|

  Lead
  [my heart your hands.]
e|--55555--55555---55555--55555-------------------------|
B|--66666--55555---66666--88888-------------------------|
G|--55555--55555---55555--55555-------------------------|
D|------------------------------------------------------|
A|------------------------------------------------------|
D|------------------------------------------------------|

  rhythm
e|------------------------------------------------------|
B|------------------------------------------------------|
G|------------------------------------------------------|
D|--888---000---888---000---8--0--8--0--8--0--8--0------|
A|--888---000---888---000---8--0--8--0--8--0--8--0------|
D|--888---000---888---000---8--0--8--0--8--0--8--0------|
                          ^
  Lead                    ^
  [close your eyes…]
e|----5---5---5---5---8---8---8---8---------8-8-8-8-8-8-|
B|---6-6-6-6-6-6-6-6-6-6-6-6-6-6-6-6--(x4)-6-6-6-6-6-6--|
G|--5---5---5---5---5---5---5---5---5-------------------|
D|------------------------------------------------------|
A|------------------------------------------------------|
D|------------------------------------------------------|

  lead
  [I can’t…]
e|-----------------------------------------------------|
B|-----------------------------------------------------|
G|-------------14-14-14-14-14--------0-0-0-0-0-0-------|
D|--8-8-8-8-----x--x--x--x--x--------0-0-0-0-0-0-------|
A|--8-8-8-8----12-12-12-12-12-(x2)---0-0-0-0-0-0-------|
D|--8-8-8-8--------------------------0-0-0-0-0-0-------|

  rhythm
e|-----------------------------------------------------|
B|-----------------------------------------------------|
G|-----------------------------------------------------|
D|--8-8-8-8----12-12-12-12-12--------0-0-0-0-0-0-------|
A|--8-8-8-8----12-12-12-12-12-(x2)---0-0-0-0-0-0-------|
D|--8-8-8-8----12-12-12-12-12--------0-0-0-0-0-0-------|

  lead
  [you’re burning from me…]
e|-----------------------------------------------------|
B|-----------------------------------------------------|
G|--17-17-17-17-17---21-21-21-21-21---22-22-22-22-22---|
D|---x--x--x--x--x----x--x--x--x--x----x--x--x--x--x---|
A|--15-15-15-15-15---19-19-19-19-19---20-20-20-20-20---|
D|-----------------------------------------------------|

  rhythm
e|-----------------------------------------------------|
B|-----------------------------------------------------|
G|-----------------------------------------------------|
D|--8-8-8-8-8-8-8----12-12-12-12-12----0-0-0-0-0-0-0---|
A|--8-8-8-8-8-8-8----12-12-12-12-12----0-0-0-0-0-0-0---|
D|--8-8-8-8-8-8-8----12-12-12-12-12----0-0-0-0-0-0-0---|
Tap to rate this tab
 
# A B C D E F G H I J K L M N O P Q R S T U V W X Y Z