Guitaretab - guitar tabs
Song name
# A B C D E F G H I J K L M N O P Q R S T U V W X Y Z

From First To Last - Dead Baby Kickball tab

-------------------------------------------------------------------------------
		   DEAD BABY KICKBALL - From First to Last
-------------------------------------------------------------------------------
Tabbed by: A-Ron
Email: gotitformyspace@yahoo.com

Tuning:drop D (D-A-D-G-B-E)

Intro pt.1:   listen to the song for the strumming patern its fast but easy
e|---------------------------|
B|--11-11-11-11-11-11-11-11--|
G|---7--7--7--7--7--7--7--7--|
D|---8--8--8--8--8--8--8--8--|x4
A|---------------------------|
D|---------------------------|

Intro pt.2:
e|--------------------------    --------------------------    ---|
B|--11-11-11-11-11-11-11-11-    --11-11-11-11-11-11-11-11-    ---|
G|---7--7--7--7--7--7--7--7-    ---0--0--0--0--0--0--0--0-    ---|
D|---8--8--8--8--8--8--8--8- x2 ---8--8--8--8--8--8--8--8- x2 ---|x2
A|--------------------------    --------------------------    ---|
D|--------------------------    --------------------------    ---|

e|--------------|
B|--11-11-11-11-|
G|---7--7--7--7-|
D|---8--8--8--8-|
A|--------------|
D|--------------|

Verse 1:
e|------------------------5h6---------------------------------|
B|------------------------------------------------------------|
G|--7-7-7-7-7--7-7-7-7-7-------9--9--9--9--9---9--9--9--9--9--|
D|--8-8-8-8-8--8-8-8-8-8------10-10-10-10-10--10-10-10-10-10--|x2
A|--5-5-5-5-5--5-5-5-5-5-------7--7--7--7--7---8--8--8--8--8--|
D|------------------------------------------------------------|

Verse 2:
e|---------------------------------------------------------------|
B|---------------------------------------------------------------|
G|-------------------------------------------------8-8-7-7---7~--|
D|--5-5-5-8-8-8-7-7-7-7-7-7-7-7--5-5-5-8-8-8-7-7-7----------10~--|x2
A|---------------------------------------------------------------|
D|---------------------------------------------------------------|
P.M * * * * * * * * * * * * * *  * * * * * * * * * * * * *
[ Tab from: http://www.guitaretab.com/f/from-first-to-last/55809.html ]
Chorus:
    Hey......Shorty....
e|----------------------------------------------------------------|
B|--------------------------------------------14-14-14-14-14-14---|
G|--7-----7-----7----15-15-15-15-15-15-15-15--10-10-10-10-10-10---|
D|--x-000-x-000-x-0---x--x--x--x--x--x--x--x--11-11-11-11-11-11---|x4
A|--5-000-5-000-5-0--13-13-13-13-13-13-13-13----------------------|
D|----000---000---0-----------------------------------------------|

e|--------------------------    --------------------------    ---|
B|--11-11-11-11-11-11-11-11-    --11-11-11-11-11-11-11-11-    ---|
G|---7--7--7--7--7--7--7--7-    ---0--0--0--0--0--0--0--0-    ---|
D|---8--8--8--8--8--8--8--8- x2 ---8--8--8--8--8--8--8--8- x2 ---|x2
A|--------------------------    --------------------------    ---|
D|--------------------------    --------------------------    ---|

e|--------------|
B|--11-11-11-11-|
G|---7--7--7--7-|
D|---8--8--8--8-|
A|--------------|
D|--------------|

Verse 1:
e|------------------------5h6---------------------------------|
B|------------------------------------------------------------|
G|--7-7-7-7-7--7-7-7-7-7-------9--9--9--9--9---9--9--9--9--9--|
D|--8-8-8-8-8--8-8-8-8-8------10-10-10-10-10--10-10-10-10-10--|x2
A|--5-5-5-5-5--5-5-5-5-5-------7--7--7--7--7---8--8--8--8--8--|
D|------------------------------------------------------------|

Verse 2:
e|---------------------------------------------------------------|
B|---------------------------------------------------------------|
G|-------------------------------------------------8-8-7-7---7~--|
D|--5-5-5-8-8-8-7-7-7-7-7-7-7-7--5-5-5-8-8-8-7-7-7----------10~--|x4
A|---------------------------------------------------------------|
D|---------------------------------------------------------------|
P.M * * * * * * * * * * * * * *  * * * * * * * * * * * * *

Outro:
e|------------------------    ---------|
B|--11-11-11-11-----------    ---------|
G|---7--7--7--7-----------    ---------|
D|---8--8--8--8--0-0-0-0-- x3 ----3-2--|
A|---0--0--0--0--0-0-0-0--    --1------|
D|---0--0--0--0--0-0-0-0--    ---------|
P.M.             * * * *


| /  slide up
| \  slide down
| h  hammer-on
| p  pull-off
| ~  vibrato
| +  harmonic
| x  Mute note
===============================================================================
Related for Dead Baby Kickball tab
Dead Baby Kickball chords by From First To Last