Song name
# A B C D E F G H I J K L M N O P Q R S T U V W X Y Z

From First To Last - Secrets Dont Make Friends tab

Song: Secrets Don't Make Friends
Album: Dear Diary, My Teenage Angst has a Bodycount (Epitaph Records)
Year: 2004
Tabbed by El Doof
el_doof@hotmail.com

*This is a version of this song that I have created for one guitar, because I see it as
fun challenge to see how much can be done at once. Obviously there are parts which can't
played together (if you can, you're a freak and will declare you my god) like the first 
of the verses and the outro, but the rest is reasonably easy. I'd recommend just
the parts that you find most relevant. Most of all, just enjoy yourself!

Time Signature - 3
                 4
Tuning - Drop D (E string tuned down a step)

INTRO PART 1 (x1)
e|---------------------|
B|---------------------|
G|--8~-----------------|
D|--0~----(PICKSLIDE)--|
A|---------------------|
D|---------------------|

INTRO PART 2 (x1)
e|---------------------------------------------5--5--5--|
B|-----------------------------------5-5--5-5--x--x--x--|
G|--10-10--10-10-10-10-10--10-10-10--x-x--x-x--x--x--x--|
D|--x--x---x--x--x--8--8---8--8--8---2-2--2-2--7--7--7--|
A|--8--8---8--8--8--8--8---8--8--8---3-3--3-3--5--5--5--|
D|--0--0---0--0--0--8--8---8--8--8-------------5--5--5--|

e|---------------------------------------------x-x-x-x-----|
B|-----------------------------------5-5--5-5--x-x-x-x-----|
G|--10-10--10-10-10-10-10--10-10-10--x-x--x-x--x-x-x-x-5*--|
D|--x--x---x--x--x--8--8---8--8--8---2-2--2-2--x-x-x-x-5*--|
A|--8--8---8--8--8--8--8---8--8--8---3-3--3-3--x-x-x-x-----|
D|--0--0---0--0--0--8--8---8--8--8-------------x-x-x-x-----|

VERSE PART 1 (x2)
e|---------------------------------------------------|
B|------5h6p5-----------5h6-----5h6p5-----------5h6--|
G|------------5h7p5h7p5---------------5h7p5h7p5------|
D|---------------------------------------------------|
A|--0-0---------------------0-0----------------------|
D|--0-0---------------------0-0----------------------|
PM  . .                     . .

e|---------------------------------------------------|
B|------5h6p5-----------5h6-----5h6p5-----------5h6--|
G|------------5h7p5h7p5---------------5h7p5h7p5------|
D|---------------------------------------------------|
A|--8-8---------------------8-8----------------------|
D|--8-8---------------------8-8----------------------|
PM  . .                     . .

*I didn't notice this part until I was writing this tab and listening to the song, so it
not be 100% correct. But it sounds pretty close. And also, this is where I had to leave
other guitar out. If you'd rather play that, do as follows.

x2
e|-----------------------|
B|-----------------------|
G|--7~----9/10~----/12~--|
D|--x-----x-x-------x----|
A|--5~----7/8~-----/10~--|
D|-----------------------|

(1)
This place is a bloodbath,
And we won't be taken alive.
We stand alone,
Under fictitious skies.

(2)
You were my compass,
Leading me to nowhere fast.
Promises were lonely roads,
I followed you down like a map.

VERSE PART 2 (x2)
e|-----------------------------------------------|
B|-----------------------------------------------|
G|-----------------------------------------------|
D|------------7h8p7-----------------7h8p7--------|
A|--0-0-7h8p7-------8p7h8-0-0-7h8p7-------8h7h8--|
D|--0-0-------------------0-0--------------------|
PM  . .                   . .

e|-----------------------------------------------|
B|-----------------------------------------------|
G|-----------------------------------------------|
D|------------7h8p7-----------------7h8p7--------|
A|--8-8-7h8p7-------8p7h8-8-8-7h8p7-------8p7h8--|
D|--8-8-------------------8-8--------------------|
PM  . .                   . .

You were always my enemy and carefully crafted my demise,
You were always my enemy and carefully crafted my demise.
Our hearts beat strong under fictitious skies,
You were always my enemy, you suck the life out of me.

PRE-CHORUS (x1)
e|-------|
B|-------|
G|--10~--|
D|--0~---|
A|--0~---|
D|--0~---|

CHORUS (x4)
e|-----------------------------------------------------------------------|
B|-----------------------------------------------------------------------|
G|--10-10--10-10-10-10-10--10-10-10-15-15-15--15-15-15--12-12-12--14-14--|
D|--8--8---8--8--8--8--8---8--8--8--x--x--x---x--x--x---10-10-10--x--x---|
A|--8--8---8--8--8--8--8---8--8--8--13-13-13--12-12-12--10-10-10--12-12--|
D|--8--8---8--8--8--8--8---8--8--8--0--0--0---0--0--0---10-10-10--10-10--|

Your words are deadly weapons,
Killing me, destroying me,
Your words are deadly weapons,
Scatter my brains across the wall!

POST-CHORUS (x1)
e|-------------------------------------------5--5--5--|
B|-------------------------------------------x--x--x--|
G|-------------------------------------------x--x--x--|
D|-------------------------------------------7--7--7--|
A|--0-0--0-0-0--8-8--8-8-8--10-10--10-10-10--5--5--5--|
D|--0-0--0-0-0--8-8--8-8-8--10-10--10-10-10--5--5--5--|

*Out of personal preference, I like to leave the higher octave out of the powerchords in
part, otherwise it doesn't sound quite right. But it's up to you in the end.

e|---------------------------------------------x-x-x-x-----|
B|-----------------------------------5-5--5-5--x-x-x-x-----|
G|--10-10--10-10-10-10-10--10-10-10--x-x--x-x--x-x-x-x-5*--|
D|--x--x---x--x--x--8--8---8--8--8---2-2--2-2--x-x-x-x-5*--|
A|--8--8---8--8--8--8--8---8--8--8---3-3--3-3--x-x-x-x-----|
D|--0--0---0--0--0--8--8---8--8--8-------------x-x-x-x-----|

INTRO PART 2 (x1)
VERSE PART 1 (x2)
VERSE PART 2 (x2)
PRE-CHORUS   (x1)
CHORUS       (x4)

INTERLUDE 1 (x8)
e|--------------------------------------------|
B|--------------------------------------------|
G|--------------------------------------------|
D|----------7-------------7------3-3-3-3-3-3--|
A|--0-0-5p0~--0h8-0-0-5p0~--0h8--3-3-3-3-3-3--|
D|--0-0-----------0-0------------3-3-3-3-3-3--|
PM  . .           . .

*Just a note for when you hammer on from A to E# (A|-0h8-|), there's no need to pick the
if you allow it to keep ringing after the pull-off beforehand. Also, in the recording,
guitars take it in turn to play the riff four times before playing in unison. I just put 
together.

F*ck you!
Secrets don't make friends!
Secrets don't make friends!
Secrets don't make friends!
Secrets don't make...

ACOUSTIC CHORUS VARIATION (x1)
e|--5~----5-----5-----5-----6~-----5-----------5~------|
B|--6-6-----6-----6-----6---6~-6-----6---8-6---6~-6----|
G|--3~--3-----3-----3-----3-x----------------5-5~---5--|
D|--------------------------0~---0-----0---------------|
A|-----------------------------------------------------|
D|-----------------------------------------------------|

e|--5~----5-----5-----5-----6~-----5-----------5~--|
B|--6-6-----6-----6-----6---6~-6-----6---8-6-------|
G|--3~--3-----3-----3-----3-x----------------5-----|
D|--------------------------0~---0-----0-----------|
A|-------------------------------------------------|
D|-------------------------------------------------|

Your words are deadly weapons,
Killing me, destroying me.

CHORUS (x4)

CHORUS VARIATION (x2)
e|----------------------------------------------------------------------|
B|--10-10--10-10-10--11-11--11-11-11--10-10--10-10-10-------------------|
G|--x--x---x--x--x---x--x---x--x--x---x--x---x--x--x---12-12--12-12-12--|
D|--7--7---7--7--7---8--8---8--8--8---7--7---7--7--7---10-10--10-10-10--|
A|--8--8---8--8--8---8--8---8--8--8---0--0---0--0--0---10-10--10-10-10--|
D|--8--8---8--8--8---8--8---8--8--8---0--0---0--0--0---10-10--10-10-10--|

e|------------------------------------10-10--10-10-10--10b-10b-10b-10b-10--|
B|--10-10--10-10-10--11-11--11-11-11--x--x---x--x--x---x---x---x---x---x---|
G|--x--x---x--x--x---x--x---x--x--x---x--x---x--x--x---x---x---x---x---x---|
D|--7--7---7--7--7---8--8---8--8--8---0--0---0--0--0---10--10--10--10--10--|
A|--8--8---8--8--8---8--8---8--8--8---0--0---0--0--0---10--10--10--10--10--|
D|--8--8---8--8--8---8--8---8--8--8---0--0---0--0--0---10--10--10--10--10--|

*Now I warn you, this bit is frickin hard to get right. But it is possible, I can do it
I've been playing 3 years, and I was figuring it out on the spot as I was writing the tab.

Your words are deadly weapons (Secrets don't make friends),
Killing me, destroying me,
Your words are deadly weapons (Secrets don't make friends),
Scatter my brains across the wall!

INTERLUDE 2 (x4)
e|--------------------------------------------------|
B|---------------------------------------------1----|
G|-------------------------------------2h3p2--------|
D|----------7-------------7------3-3-3-------3---2--|
A|--0-0-5p0~--0h8-0-0-5p0~--0h8--3-3-3-----------3--|
D|--0-0-----------0-0------------3-3-3--------------|
PM  . .           . .

*In the original recording, Guitar 1 (Travis) plays the E# chord 6 times, the same as in
1. So there's the other option if you prefer that.

Secrets don't (Secrets don't make friends) make friends!
(Secrets don't make friends)
Secrets don't (Secrets don't make friends) make friends!
(Secrets don't make friends)

OUTRO (x1)
e|--------------------------------------------------|
B|---------------------------------------------1----|
G|-------------------------------------2h3p2--------|
D|-------------------------------3-3-3-------3---2--|
A|--0-0-----------0-0------------3-3-3-----------3--|
D|--0-0-----------0-0------------3-3-3--------------|
PM  . .           . .

e|-----------------------------------------------------|
B|----------------------------------------------1------|
G|-------------------------------------2h3p2-----------|
D|-------------------------------3-3-3-------3-----2~--|
A|--0-0-----------0-0------------3-3-3-------------3~--|
D|--0-0-----------0-0------------3-3-3-----------------|
PM  . .           . .

| ~  - let ring
| h  - hammer-on
| p  - pull-off
| b  - full bend
| *  - natural harmonic
| x  - mute
| PM - palm-mute
| \  - slide down
| /  - slide up
Tap to rate this tab
# A B C D E F G H I J K L M N O P Q R S T U V W X Y Z