Song name
# A B C D E F G H I J K L M N O P Q R S T U V W X Y Z

From First To Last - Populace In Two tab

guitar 1
e|----------------------------|
B|----------------------------|
G|--6h7p6--4h6p4--2h4p2--1h2p1|
D|----------------------------|
A|----------------------------|
D|----------------------------|

e|-------------------------------------------|
B|-------------------------------------------|
G|1------------------------------------------|
D|--2-4-444--2-4-444-2-----------------------|
A|-------------------------------------------|
D|-------------------------------------------|

e|------------------------------|
B|------------------------------|
G|--6h7p6--4h6p4--2h4p2--1h2p1--|
D|-----------------------------2|
A|------------------------------|
D|------------------------------|

e|------------------------------------------|
B|------------------------------------------|
G|-/11-11119-11-11119-----------------------|
D|------------------------------------------|
A|------------------------------------------|
D|------------------------------------------|

e|--------------------------------------------|
B|--/10----------------------10~~-------------|
G|----------------9--------9------------------|
D|-------12-11--9---11-12---------------------|
A|--------------------------------------------|
D|--------------------------------------------|

guitar 2
e|------------------------------------------|
B|------------------------------------------|
G|------------------------------------------|
D|--7777777777777777----7777766677777666----|
A|--7777777777777777----4444444444444444----|
D|--7777777777777777----4444444444444444----|

e|------------------------------------------|
B|------------------------------------------|
G|----------77777777------------------------|
D|--77777777xxxxxxxx----7777766677777666----|
A|--7777777755555555----4444444444444444----|
D|--77777777------------4444444444444444----|

e|------------------------0~~~~-------------|
B|-------------2~~~~------2~~~~-------------|
G|-------------1~~~~------2~~~~-------------|
D|--6~~~~------0~~~~------0~~~~-------------|
A|--4~~~~------0~~~~------0~~~~-------------|
D|--4~~~~------0~~~~------0~~~~-------------|
Tap to rate this tab
# A B C D E F G H I J K L M N O P Q R S T U V W X Y Z