Song name
# A B C D E F G H I J K L M N O P Q R S T U V W X Y Z

From First To Last - Featuring Some Of Your Favorite Words tab

Help us improve GuitareTab! Take a short survey!
----------------------------------------------------------------------------
Featuring Some Of Your Favorite Words - From First To Last
----------------------------------------------------------------------------


Tuning: Drop-D


Intro:
e|------------------------------------------------------------|
B|--1010-1010-1010-1010-10-10---------------------------------|
G|--7-7--7-7--7-7--7-7--7--7--1010-1010-1010-1010-10-10-------|
D|----------------------------8-8--8-8--8-8--8-8--8--8--------|
A|------------------------------------------------------------|
E|------------------------------------------------------------|
                                                                  x4
e|--10-8------------------------------------------------------|
B|-------10-11-10h11p10---------------------------------------|
G|---------------------10-------------------------------------|
D|------------------------5-555555--75522/3-------------------|
A|------------------------5-555555----------------------------|
E|------------------------5-555555----------------------------|
                            ......

Chorus: (not completely sure on the 1st part of the chorus)
e|------------------------------------------------------------|
B|------------------------------------------------------------|
G|------------------------------------------------------------|
D|--00000-------------------0000------------------------------|
A|--00000-13131312121212----00000 13131312121212--------------|
E|--00000-0-0-0-0-0-0-0-----00000 0-0-0-0-0-0-0---------------|
                                                                  x2
e|------------------------------------------------------------|
B|------------------------------------------------------------|
G|------------------------------------------------------------|
D|------------------------------------------------------------|
A|----10--10-8-8888888---8--8-5-5555555-----------------------|
E|--88--88-------------55-55----------------------------------|

After chorus
e|------------------------------------------------------------|
B|------------------------------------------------------------|
G|------------------------------------------------------------|
D|------------------------------------------------------------|
A|----10--10-8-8888888---8--8-5-5555555-----------------------|
E|--88--88-------------55-55----------------------------------|

e|------------------------------------------------------------|
B|------------------------------------------------------------|
G|------------------------------------------------------------|
D|----8--8-7-7777777-------5----------------------------------|
A|----------------------8----8-8888888------------------------|
E|--88-88-------------55-55-----------------------------------|

Bridge:
e|------------------------------------------------------------|
B|----------------------------------10-1010~------------------|
G|--10-12-10-9-10-9-7-9-10-12-10-9-7--7-----------------------|
D|------------------------------------------------------------|
A|------------------------------------------------------------|
E|------------------------------------------------------------|

Outro
e|------------------------------------------------------------|
B|------------------------------------------------------------|
G|----------------7~^-----------------------------------------|
D|----5-5/7-----7---------------------------------------------|
A|------------------------------------------------------------|
E|--8---------5-----------------------------------------------|x4

e|------------------------------------------------------------|
B|------------------------------------------------------------|
G|------------------------------------------------------------|
D|--------------------------------875-------------------------|
A|--88888-88888-8/10-55555 55555------------------------------|x4
E|--88888-88888-8/10 55555 55555------------------------------|

e|---------------------------------------12-------------------|
B|-----------8--8108101111--play-----1011-----Play--this------| Play
G|--78781078--10------------4-times-----------?-times.--------| Until
D|-8------------------------then->----------------------------| End.
A|------------------------------------------------------------|
E|------------------------------------------------------------|


Guitar 2:


Intro:
e|------------------------------------------------------------|
B|------------------------------------------------------------|
G|------------------------------------------------------------|
D|--0--8--9--9995-555555--75522/3-----------------------------|
A|--0--8--9--9995-555555--------------------------------------| x4
E|--0--8--9--9995-555555--------------------------------------|
             ...  ......

Chorus (not completely sure on the 1st part of the chorus)
e|------------------------------------------------------------|
B|------------------------------------------------------------|
G|------------------------------------------------------------|
D|--00000-------------------0000------------------------------|
A|--00000-13131312121212----00000 13131312121212--------------|
E|--00000-0-0-0-0-0-0-0-----00000 0-0-0-0-0-0-0---------------|
                                                                x2
e|------------------------------------------------------------|
B|------------------------------------------------------------|
G|------------------------------------------------------------|
D|------------------------------------------------------------|
A|----10--10-8-8888888---8--8-5-5555555-----------------------|
E|--88--88-------------55-55----------------------------------|

After chorus
e|------------------------------------------------------------|
B|------------------------------------------------------------|
G|------------------------------------------------------------|
D|----8--8-7-7777777-------5----------------------------------|
A|----------------------8----8-8888888------------------------|
E|--88-88-------------55-55-----------------------------------|

e|------------------------------------------------------------|
B|------------------------------------------------------------|
G|------------------------------------------------------------|
D|------------------------------------------------------------|
A|----10--10-8-8888888---8--8-5-5555555-----------------------|
E|--88--88-------------55-55----------------------------------|

After "After Chorus"
e|------------------------------------------------------------|
B|------------------------------------------------------------|
G|------------------------------------------------------------|
D|------------------------------------------------------------|
A|--88888888888888888888888888888888--------------------------|
E|--88888888888888888888888888888888--------------------------|

Outro
e|------------------------------------------------------------|
B|------------------------------------------------------------|
G|----------------7~^-----------------------------------------|
D|----5-5/7-----7---------------------------------------------|
A|------------------------------------------------------------|
E|--8---------5-----------------------------------------------|x4

e|------------------------------------------------------------|
B|------------------------------------------------------------|
G|------------------------------------------------------------|
D|--------------------------------875-------------------------|
A|--88888-88888-8/10-55555 55555------------------------------|
E|--88888-88888-8/10 55555 55555------------------------------|x8

e|------------------------------------------------------------|
B|------------------------------------------------------------|
G|------------------------------------------------------------|
D|--------------------875-------------------------------------|
A|--8-8-8-8/10-5-5-5------------------------------------------|
E|--8-8-8-8/10-5-5-5------------------------------------------|x2

e|------------------------------------------------------------|
B|------------------------------------------------------------|
G|----------------7~^-----no bend played----------------------|
D|----5-5/7-----7---------on the 2nd time---------------------|
A|------------------------------------------------------------|
E|--8---------5-----------------------------------------------|x2


| /  slide up
| \  slide down
| h  hammer-on
| p  pull-off
| ~  vibrato
| +  harmonic
| x  Mute note
============================================================================
Related for Featuring Some Of Your Favorite Words tab