Song name
# A B C D E F G H I J K L M N O P Q R S T U V W X Y Z

From First To Last - Failure By Designer Jeans tab

----------------------------------------------------------------------------
                From First to Last - Failure by Designer Jeans
----------------------------------------------------------------------------

Tabbed by: Tim Y. (bleedingx3)
email: hex_x3@yahoo.com
AIM : TimofBodomxx

[info above is for corrections/suggestions]

I have worked long and hard on this song, but it was definitely worth it. Failure by
Jeans is one of my favorite songs by From First to Last (compilation CD).  This song is
difficult to tab, but here is what I have (corrections/suggestions would be loved. =])


Tuning : Drop C ( C G C F A D )

Legend :
p = pull off
h = hammer on
. = palm mute
* = optional [sounds better if you play it, but you don't have to]
| = single/together guitar staff
|| = double guitar parts staff


||----------------------------------||
||--------9---------------9--9------||
||---11--------------11--------11---||
||-9----9----9--9--9----9---------9-|| [Guitar 1]
||----------------------------------||
||----------------------------------||
|
||---------------------------------||
||---------------------------------||
||-6-6-6-6--6--6--6-6-6-6--6-6-6-6-||
||-4-4-4-4--4--4--4-4-4-4--4-4-4-4-||  [Guitar 2]
||-4-4-4-4--4--4--4-4-4-4--4-4-4-4-||
||-4-4-4-4--4--4--4-4-4-4--4-4-4-4-||


||----------------------------------||
||--------9---------------9--9------||
||---11--------------11--------11---||
||-9----9----9--9--9----9---------9-||
||----------------------------------||
||----------------------------------||
|
||---------------------------------||
||---------------------------------||
||---------------------------------||
||-0-0-0-0--0--0--0-0-0-0--0-0-0-0-||
||-0-0-0-0--0--0--0-0-0-0--0-0-0-0-||
||-0-0-0-0--0--0--0-0-0-0--0-0-0-0-||


||----------------------------------||
||--------9---------------9--9------||
||---11--------------11--------11---||
||-9----9----9--9--9----9---------9-||
||----------------------------------||
||----------------------------------||
|
||---------------------------------||
||---------------------------------||
||-6-6-6-6--6--6--6-6-6-6--6-6-6-6-||
||-4-4-4-4--4--4--4-4-4-4--4-4-4-4-||
||-4-4-4-4--4--4--4-4-4-4--4-4-4-4-||
||-4-4-4-4--4--4--4-4-4-4--4-4-4-4-||


||-----------------------||
||-----------------------||
||-----9--------9------9-|| [Guitar 1]
||-6-7------6-7----6-7---||
||-----------------------||
||-----------------------||
|                                    [Fill 1]
||-----------------------||
||-----------------------||
||-6-6-6----6-6-6--6-6-6-|| [Guitar 2]
||-4-4-4----4-4-4--4-4-4-||
||-4-4-4----4-4-4--4-4-4-||
||-4-4-4----4-4-4--4-4-4-||

[Repeat the top 3 riffs, when it gets to "Fill 1" play "Fill 2" instead]

||-----------------------------------------------||
||-----------------------------------------------||
||-----9-------9------9--------6-------6------6--|| [Guitar 1]
||-6-7-----6-7----6-7------6-7-----6-7----6-7----||
||-----------------------------------------------||
||-----------------------------------------------||
|                                                      [Fill 2]
||-----------------------------------------------||
||-----------------------------------------------||
||-9-9-9---9-9-9--9-9-9----6-6-6---6-6-6--6-6-6--|| [Guitar 2]
||-7-7-7---7-7-7--7-7-7----4-4-4---4-4-4--4-4-4--||
||-7-7-7---7-7-7--7-7-7----4-4-4---4-4-4--4-4-4--||
||-----------------------------------------------||


"I'm .. a mess .. of insecurities .."
|-----------|
|-----------|
|-6*--------|
|-4---------|
|-4--[hold]-|
|-4---------|


"Don't you think that I'm amazing?" [all 6's here are *]
|---------------------------------------------|
|---------------------------------------------|
|-6-6---6----6-6---6----6-6---6----6-6---6----|
|-4-4---4----4-4---4----4-4---4----4-4---4----| [Play according to song]
|-4-4---4----4-4---4----4-4---4----4-4---4----|
|-4-4---4----4-4---4----4-4---4----4-4---4----|
  . .        . .        . .        . .


"Home today (home today)"
|-----------------------------------------------------------------|
|-----------------------------------------------------------------|
|-6666666666-111111111111-999999-6666666666--11-11-11---11-9---9--|
|-6666666666-111111111111-999999-6666666666--11-11-11---11-9---9--|
|-4444444444--9-9-9-9-9-9-777777-4444444444---9--9--9----9-7---7--|
|-----------------------------------------------------------------|


"Mirror, mirror, how amazing is my figure?
Your visitors they fall apart before my pictures."

||-------------------------------------------------------------------|| [Guitar 1]
||-------------------------------------------------------------------|| [They do match up,
||--------------------------6666-7777-9999-11111111--||  11 is just 2||
||-44444-777777-222222-2-2--6666-7777-9999-11111111------------------||  digits so its
||-44444-777777-222222-2-2--4444-5555-7777--9-9-9-9------------------||  longer.]
||-44444-777777-222222-2-2-------------------------------------------||
|--------------------------------------------------------------------||2x]
||-------------------------------------------------------------------||
||-------------------------------------------------------------------||
||-------------------------------------------------------------------||      [Guitar 2]
||-44444-777777-222222-2-2--00000000000-222222-----------------------||
||-44444-777777-222222-2-2--00000000000-222222-----------------------||
||-44444-777777-222222-2-2--00000000000-222222-----------------------||


[!Marker!]

||----------------------------------||
||--------9---------------9--9------||
||---11--------------11--------11---|| [Guitar 1]
||-9----9----9--9--9----9---------9-||
||----------------------------------||
||----------------------------------||
|
||---------------------------------||
||---------------------------------||
||-6-6-6-6--6--6--6-6-6-6--6-6-6-6-||  [Guitar 2]
||-4-4-4-4--4--4--4-4-4-4--4-4-4-4-||
||-4-4-4-4--4--4--4-4-4-4--4-4-4-4-||
||-4-4-4-4--4--4--4-4-4-4--4-4-4-4-||


||----------------------------------||
||--------9---------------9--9------||
||---11--------------11--------11---||
||-9----9----9--9--9----9---------9-||
||----------------------------------||
||----------------------------------||
|
||---------------------------------||
||---------------------------------||
||---------------------------------||
||-0-0-0-0--0--0--0-0-0-0--0-0-0-0-||
||-0-0-0-0--0--0--0-0-0-0--0-0-0-0-||
||-0-0-0-0--0--0--0-0-0-0--0-0-0-0-||


||----------------------------------||
||--------9---------------9--9------||
||---11--------------11--------11---||
||-9----9----9--9--9----9---------9-||
||----------------------------------||
||----------------------------------||
|
||---------------------------------||
||---------------------------------||
||-6-6-6-6--6--6--6-6-6-6--6-6-6-6-||
||-4-4-4-4--4--4--4-4-4-4--4-4-4-4-||
||-4-4-4-4--4--4--4-4-4-4--4-4-4-4-||
||-4-4-4-4--4--4--4-4-4-4--4-4-4-4-||


||-----------------------||
||-----------------------||
||-----9--------9------9-|| [Guitar 1]
||-6-7------6-7----6-7---||
||-----------------------||
||-----------------------||
|
||-----------------------||
||-----------------------||
||-6-6-6----6-6-6--6-6-6-|| [Guitar 2]
||-4-4-4----4-4-4--4-4-4-||
||-4-4-4----4-4-4--4-4-4-||
||-4-4-4----4-4-4--4-4-4-||

[!Marker!]

[Play those 4 riffs twice.]


"Please don't believe, my words are lacking, honesty."
|--------------------------------------|
|--------------------------------------|
|--------------------------------------| [2x]
|--------------------------------------|
|--------------------------------------|
|-44444444-2222-0000-44444444-77777777-|
  ........ .... .... ........ ........


"I'll be the boy you can't resist.."
|------------------------------------------------|
|------------------------------------------------|
|------------------------------------------------|
|----4---2-2-2-2-0-0-0-0-----4---7-7-7-7-7-7-7-7-| [2x]
|-44-4---2-2-2-2-0-0-0-0--44-4---7-7-7-7-7-7-7-7-|
|-44-4---2-2-2-2-0-0-0-0--44-4---7-7-7-7-7-7-7-7-|
  ..                      ..


"Please, don't believe, my words are lacking, honesty."
|-----------------------------------------------------------------|
|-----------------------------------------------------------------|
|-6666666666-111111111111-999999-6666666666--11-11-11---11-9---9--|
|-6666666666-111111111111-999999-6666666666--11-11-11---11-9---9--|
|-4444444444--9-9-9-9-9-9-777777-4444444444---9--9--9----9-7---7--|
|-----------------------------------------------------------------|


"Mirror, mirror, how amazing is my figure?
Your visitors they fall apart before my pictures."

||-------------------------------------------------------------------|| [Guitar 1]
||-------------------------------------------------------------------|| [They do match up,
||--------------------------6666-7777-9999-11111111--||  11 is just 2||
||-44444-777777-222222-2-2--6666-7777-9999-11111111------------------||  digits so its
||-44444-777777-222222-2-2--4444-5555-7777--9-9-9-9------------------||  longer.]
||-44444-777777-222222-2-2-------------------------------------------||
|--------------------------------------------------------------------||2x]
||-------------------------------------------------------------------||
||-------------------------------------------------------------------||
||-------------------------------------------------------------------||      [Guitar 2]
||-44444-777777-222222-2-2--00000000000-222222-----------------------||
||-44444-777777-222222-2-2--00000000000-222222-----------------------||
||-44444-777777-222222-2-2--00000000000-222222-----------------------||


"You'll be the last girl on my list.."
|------------------------------------------------|
|------------------------------------------------|
|------------------------------------------------|
|-44-4----4-4-44-4----0-0-0-0-0-0---0-0-0-0-0-0--| [2x]
|-44-4----4-4-44-4----0-0-0-0-0-0---0-0-0-0-0-0--|
|-44-4----4-4-44-4----0-0-0-0-0-0---0-0-0-0-0-0--|
  .. .    . . .. .


"Please don't believe, my words are lacking, honesty..."

[I am really unsure about the guitar 1 part, its pretty hard to hear/tab. But I tried my best.]


                                                     [Guitar 1]
||--------------------------------------------------------------------||
||-------------11-10--------------------------------------------------||
||-9p09p09p0-9-------9p09p09p0------------------------------9p0-11p0--||
||-----------------------------11p011p011p012p012p012p012p0-----------||
||--------------------------------------------------------------------||
||--------------------------------------------------------------------||
|
|                                                    [Guitar 2]
||--------------------------------------------------------------------||
||--------------------------------------------------------------------||
||--------------------------------------------------------------------||
||-44--4------4-4-44-4----------------0-0-0-0-0-0--------0-0-0-0-0-0--||
||-44---------4-4-44-4----------------0-0-0-0-0-0--------0-0-0-0-0-0--||
||-44--4------4-4-44-4----------------0-0-0-0-0-0--------0-0-0-0-0-0--||
   ..  .      . . .. .


[Ending]

|---------------------------9[hold]-|
|-----------------------------------|
|-----------------------------------|
|-9-------9---------9--9------------|
|---11-12---11-12-------------------|
|-----------------------------------|


Well, here it is.  Again, any corrections or suggestions you may have, feel free to
me so that I can fix it.  Enjoy this song =D
Tap to rate this tab
# A B C D E F G H I J K L M N O P Q R S T U V W X Y Z