Song name
# A B C D E F G H I J K L M N O P Q R S T U V W X Y Z

From First To Last - Waves Goodbye tab

From First To Last
Waves Goodbye 

Tabbed by: Omghithere
Tuned: Drop C (Cgcfad)

~ = Let it ring
. = Palm Mute
h = Hammer on
p = Pull-off
/  = Slide
* = Harmonics


Intro
|------------------------------------------------|
|------------------------------------------------|
|-------0-----------0~-------0-----------0~------|
|---2-----2-----5--------2-----2-----5-----------|
|-3---3-----0/7---7----3---3-----0/7---7---------|
|------------------------------------------------|
   
|------------------------------------------------| 
|------------------------------------------------|
|-------------------------------------------0----|
|---0---3-0------0---2~---0---3-0-----0---2------|
|-1---1------1-0---0----1---1-----1-0---0--------|
|------------------------------------------------|
Tap to rate this tab
 
# A B C D E F G H I J K L M N O P Q R S T U V W X Y Z