Song name
# A B C D E F G H I J K L M N O P Q R S T U V W X Y Z

From First To Last - Levy tab

Help us improve GuitareTab! Take a short survey!
umm solo levy etc. blabla blah i need say no more cept fftl rox!!!!!!!!!
style change was weird though......................
umm i havent got the end bit yet but its simple i rekon................

in standard tuning

|18b-r---16-15-16-15--|
|---------------------|
|---------------------|
|---------------------|
|---------------------|
|---------------------|


|-----------------------|
|18br-18-16-15-16-18-16-|
|-----------------------|
|-----------------------|
|-----------------------|
|-----------------------|

                                 v-hold-v
|--------------------------------15b----r--------------------------------|
|16-15-16-15-16b--15-16-15-16-15----------15-16-15-16br-16p15h16p15------|
|-------------------------------------------------------------------15b~-|
|------------------------------------------------------------------------|
|------------------------------------------------------------------------|
|------------------------------------------------------------------------|


trill(real fast)
|------------15-18b--}-----|
|------14-17---------}x3---|
|15-17---------------}-----|YOU can work the rest out theres another fast
|--------------------------|bit then a slow bit
|--------------------------|
|--------------------------|


bai bai xo
 hahahhahahahahahahhahahahahahaahh

Related for Levy tab