Song name
# A B C D E F G H I J K L M N O P Q R S T U V W X Y Z

From First To Last - Waltz Moore tab

Song: Walt Moore
Band: From First to Last
Album: Heroine
Tuning: Drop C

D|-------------------------------------------------------------------------------------|
A|----15^----------------------------------------------15^-----------------------------|
F|---------15------------------------------------------------15------------------------|
c|--------------12--14^-p12-14-12-14h15-14-12------------------12—14^-p12-14-12-14h15--|
G|-------------------------------------------------------------------------------------|
C|-------------------------------------------------------------------------------------|

Guitar two
D|--------------------------------------------------------------------------------------|
A|--------------------------------------------------------------------------------------|
F|--------------------------------------------------------------------------------------|
c|------------------------------0-0-0-0-0-0-0----------------------------------0-0-0-0--|
G|--------------------------------------------------------------------------------------|
C|--------------------------------------------------------------------------------------|

Verse

...I can’t eat… Anything… without shoving my hand down my throat…
D|--------------------------------------------------------------------------------------|
A|--------------------------------------------------------------------------------------|
F|--------------------------------------------------------------------------------------|
c|--------------------------------------------------------------------------------------|
G|--------------------------------------------------------------------------------------|
C|--12-12-12-12-12-12-8-8-8-8-8-8-8-12-12-12-12-12-12-8-8-8-8-8-8-8---------------------|
(repeat till end of verse)

Guitar one entrance:

With my hair blinding my eyes…
D|--------------------------------------------------------------------------------------|
A|----15^----------------------------------------------15^------------------------------|
F|---------15------------------------------------------------15-------------------------|
c|--------------12--14^-p12-14-12-14h15-14-12-------------------12—14^-p12-14-12-14h15--|
G|--------------------------------------------------------------------------------------|
C|--------------------------------------------------------------------------------------|


Guitar two:
(palm mute)
D|----------------------------------|
A|----------------------------------|
F|----------------------------------|
c|--0--0----0--0-0—0—0—--0—--0-00-0-|
G|--0--0----0--0-0—0—0---0---0-00-0-|
C|--0--0----0--0-0—0—0---0---0-00-0-|
    .  .    .  .  . . .  .    ... .

Guitar one:

I can’t remember… the last time I’ve seen my own eyes

D|----------------------|
A|----------------------|
F|----------------------|
c|--0-0—3—0-0—3—0-0—3—2-|
G|------------------4—4-|
C|----------------------|  x2

D|--------------|
A|--------------|
F|--------------|
c|--12—8—12—--8-|
G|--12—8—12---8-|
C|--12—8—12---8-|

Guitar two:
D|----1—2-----|
A|--3-------3-|
F|------------|
c|------------|
G|------------|
C|------------| x 16




Guitar one:

D|------------------------------------------------------------------------------------|
A|----15^----------------------------------------------15^----------------------------|
F|---------15-----------------------------------------------15------------------------|
c|--------------12--14^-p12-14-12-14h15-14-12-----------------12—14^-p12-14-12-14h15--|
G|------------------------------------------------------------------------------------|
C|------------------------------------------------------------------------------------|

Both guitars:
D|---------------------------------------------------------------|
A|---------------------------------------------------------------|
F|---------------------------------------------------------------|
c|---12-12-12-12-12-12-8-8-8-8-8-8-12-12-12-12-12-12-8-8-8-8-8-8-|
G|---12-12-12-12-12-12-8-8-8-8-8-8-12-12-12-12-12-12-8-8-8-8-8-8-|
C|---12-12-12-12-12-12-8-8-8-8-8-8-12-12-12-12-12-12-8-8-8-8-8-8-|

Chorus

Both guitars
D|-----------------------------------------------------------------------|
A|-----------------------------------------------------------------------|
F|-----------------------------------------------------------------------|
c|---12-12-12-12-12-12-15-15-15-15-15-15-6-6-6-6-6-6-6-11-11-11-11-11-11-|
G|---12-12-12-12-12-12-15-15-15-15-15-15-6-6-6-6-6-6-6-11-11-11-11-11-11-|
C|---12-12-12-12-12-12-15-15-15-15-15-15-6-6-6-6-6-6-6-11-11-11-11-11-11-| x2


 Bridge
Guitar one:
D|---4-3-3-3-|
A|-----------|
F|-----------|
c|-----------|
G|-----------|
C|-----------| x24

Solo-thing:
Guitar two:
D|----------------------|
A|----------------------|
F|----------------------|
c|-----------------8^-7-|
G|--1—0—5----1—0—5------|
C|----------------------|

This is what I can make out of the rest of the solo, its pretty distorted! So don’t yell 
me if its wrong!
D|----------------------------------------|
A|----------------------------------------|
F|----------------------------------------|
c|----------------------------------8^-7--|
G|---5-0—-5-0—-5-0—-5-0—1—0—5—1—0—5-------|
C|-0-----3----5----7----------------------|  x6


D|---------------------------|
A|---------------------------|
F|---------------------------|
c|--8—8-8-8—7—7-7-7—8—8-8-8--|
G|--8—8-8-8—7—7-7-7—8—8-8-8--|
C|--8—8-8-8—7—7-7-7—8—8-8-8--|

Guitar two: (with chords at end of bridge)(tremolo picking)
D|--13---12—-13---|
A|----------------|
F|----------------|
c|----------------|
G|----------------|
C|----------------|

Pre chorus

Guitar one:
D|-----1-----1-------1------1---0-|
A|--3—3—3—3—3---3—3—3---3—2---1---|
F|--------------------------------|
c|--------------------------------|
G|--------------------------------|
C|--------------------------------| x2

Guitar two: (after feedback)
D|-------1----1--0---1------1-----1----0---|
A|-----------------------------------------|
F|-----------------------------------------|
c|-----------------------------------------|
G|-----------------------------------------|
C|-----------------------------------------| x2


Last Chorus: Heavily distorted, both guitars, repeat this till outro
D|-----------------------------|
A|-----------------------------|
F|-----------------------------|
c|--0-0—-3—0-0—-3—-0-0—--3—-2--|
G|---------------------4--4----|
C|-----------------------------|

Outro:
High reverb and distortion.
D|--17-------------------------15—17-----------------|
A|----13-12-13-12-13-12-----------13-12-13-12-13-12--|
F|---------------------------------------------------|
c|---------------------------------------------------|
G|---------------------------------------------------|
C|---------------------------------------------------| x5
Tap to rate this tab
# A B C D E F G H I J K L M N O P Q R S T U V W X Y Z