Song name
# A B C D E F G H I J K L M N O P Q R S T U V W X Y Z

From First To Last - Latest Plague tab

Help us improve GuitareTab! Take a short survey!
Band - From First To Last
Song - Latest Plague

Easy intro,.. ya know just listen to the song to find the rhythme to it, or however ya 
it. Enjoy

Intro
       Thats not the exact amount of 12's but ya get the point.
|-12-12-12-12-12-12-12-12--------------------|
|-------------------------10-12-11---10-12-11|
|--------------------------------------------|
|--------------------------------------------|
|--------------------------------------------|
|--------------------------------------------|

|-12-12-12-12-12-12-12-12--------------------|
|-------------------------10-12-11---10-12-11|
|--------------------------------------------|
|--------------------------------------------|
|--------------------------------------------|
|--------------------------------------------|

|-12-12-12-12-12-12-12-12--------------------|--------|
|-------------------------10-12-11---10-12-11|--------|
|--------------------------------------------|--------|
|--------------------------------------------|--6-----|
|--------------------------------------------|--------|
|--------------------------------------------|--------| That buzzing sound is the 6.

Alright, thats all listen to the song for the rhythm.

Laterr
Related for Latest Plague tab