Song name
# A B C D E F G H I J K L M N O P Q R S T U V W X Y Z

From First To Last - Crows Are Coming For Us tab

band:from first to last
album:heroine
tabber:jordan slattery
guitarists:travis ritcher and matt good
tuning:drop-d

pt1 2times| pt2 repeat four times         |    
|---------|--5p0--------------------------|
|-3-2-3-5-|------6p0-5h6p0-8p0-6p0-5h6p0--|
|-4-3-4-6-|-------------------------------|
|-4-3-4-6-|-------------------------------|
|-2-1-2-4-|-------------------------------|
|---------|-------------------------------|


verse1 --pick really fast do times two---prechorus
|-18~-17~--15~14~--12~11~--9~-8~--------|----------|
|---------------------------------------|-3-2-3-5--|
|---------------------------------------|-4-3-4-6--|
|---------------------------------------|-4-3-4-6--|
|---------------------------------------|-2-1-2-4--|
|---------------------------------------|----------|

chorus(play these chords in order you need to listen for timing)
|---------------------------------------|then play---------|
|---------------------------------------|repeat too--------|
|---------------------------------------|------------------|
|-7--10--3--2--7--3--2--6--7--10--3--2--|-1-1-3-2-0-0------|
|-7--10--3--2--7--3--2--6--7--10--3--2--|-1-1-3-2-0-0------|
|-7--10--3--2--7--3--2--6--7--10--3--2--|-1-1-3-2-0-0------|

verse2 a bit like verse 1(repeat both parts a few times)
|--18---17-----15---14-|-5p0-----------------------------------|
|----------------------|-----6p0--5h6p0--8p0--6p0--5h6p0--5p0--|
|----------------------|---------------------------------------|
|----------------------|---------------------------------------|
|----------------------|---------------------------------------|
|----------------------|---------------------------------------|

then play prechorus


then play chorus

ok heres 
the solo-bit(best i could do here)pick really fast
|-------2 times-----------------------------------------------|
|-------------------------------------------------------------|
|-999999998888810101010101010--then just bend your way up-----|
|------------------------------and keep picking-sliding etc.--|
|-------------------------------------------------------------|
|-------------------------------------------------------------|

interlude               
|-5555-1100-8888-1100-5555-1100-2222-1100-thn go-4p2-|
|----------------------------------------few times---|
|----------------------------------------------------|
|----------------------------------------------------|
|----------------------------------------------------|
|----------------------------------------------------|

then chorus to end
Tap to rate this tab
# A B C D E F G H I J K L M N O P Q R S T U V W X Y Z